Bush - The People That We Love Chords & Tabs

 

The People That We Love Chords & Tabs

Bush Chords & Tabs

Version: 2 Type: Tab 0 ratings
1 star 2 stars 3 stars 4 stars 5 stars
comments

The People That We Love Tab

   
Artist: Bush
Song: "The People That We Love" (aka "Speed Kills")
Album: Golden State (2001)
Transcribed by: Steve K. (stevek@bitstorm.net)
Web: www.bitstorm.net/stevek


O.K. This is the first tab I've ever submited.  It may not be 
100%, but it is better than any other tabs i've seen for this song.

  Verses and chorus
  NOTE:verses are palm muted                                  

e ||---------------------------------|
B ||---------------------------------|
G ||------9-9-9-9--------------------|
D ||7-7-7-9-9-9-9-10-10-10-10-7/5\7-7|
A ||7-7-7-7-7-7-7-10-10-10-10-7/5\7-7|
E ||5-5-5---------8--8--8--8--5/3\5-5|

[ Tab from: http://www.guitartabs.cc/tabs/b/bush/the_people_that_we_love_tab_ver_2.html ]
                                     
bridge 1

e ||--------------------------------|
B ||--------------------------------|
G ||10-16x-14-16x-10-16x------------|
D ||10-16x-14-16x-10-16x-10-8x-10-8x|
A ||8--16x-12-16x-8--16x-10-8x-10-8x|
E ||---------------------8--8x-7--8x|

bridge 2

e ||---------------------------------|
B ||---------------------------------|
G ||-----5---------------------------|
D ||-7-2-5-7-5/7---------------------|
A ||-7-2-3-7-5/7---------------------|
E ||-5-0---5-3/5---------------------|



Questions or comments: stevek@bitstorm.net

I may be putting song I've tabbed out on my website in the future......

Comments