Bush - The Chemicals Between Us Chords & Tabs

 

The Chemicals Between Us Chords & Tabs

Bush Chords & Tabs

Version: 3 Type: Tab 0 ratings
1 star 2 stars 3 stars 4 stars 5 stars
comments

The Chemicals Between Us Tab

T1: Gavin, DawCreek50@hotmail.com, BUSH, The Chemicals Between Us, Not Out Yet 

   S1: This song is due out the end of september, but my radio station played it
   early, so I could tab it for you BUSH fans., Song: The Chemicals Between Us 
   Artist: BUSH 
   Written by: Gavin Rossdale 
   A freak accident happened where I live, I am a total BUSH fan, and my radio 
   station played this song a month before it is to be released. The DJ got sued 
   by BUSHs lawyer, but i got the song on tape, and tabbed it! 
   Tabbed by: Dawcreek50@hotmail.com 

   :standard tunning" 
[ Tab from: http://www.guitartabs.cc/tabs/b/bush/the_chemicals_between_us_tab_ver_3.html ]
   Verse/ Intro 
   ----------------------------------------------------------------------------- 
   ----------------------------------------------------------------------------- 
   ---4--4--4------------------------------7\4--4--4---------------------------- 
   ---4--4--4-----7\2--2--2---------------------------- 
   ---2--2--2------------------------------5\2--2--2---------------------------- 
   ----------------------------------------------------------------------------- 
   That is all the verse is, just keep repeating. (Like swallowed) 

   Chorus 
   ----------------------------------------------------------------------------- 
   ----------------------------------------------------------------------------- 
   ---14-----14---------------------------------------------7-----------14----14 
   ------14-----------14---------5-----5-----------7-----------7-----------14--- 
   ---------------12------12\3------3-----2/3/5--------5----------5/12---------- 
   ----------------------------------------------------------------------------- 
   "The Chemicals Between Us, Walls between us, Lying in this bed." 
   "The Chemicals this place, there is no lonely state, Lying in the Bed" 

   Thats all the whole song is. Its really a good drum song, but I don't play the
   drums. 
   Enjoy! 
Comments