Bush - Testosterone Chords & Tabs

 

Testosterone Chords & Tabs

Bush Chords & Tabs

Version: 2 Type: Tab 0 ratings
1 star 2 stars 3 stars 4 stars 5 stars
comments

Testosterone Tab

   
#----------------------------------PLEASE NOTE---------------------------------#
#This file is the author's own work and represents their interpretation of the #
#song. You may only use this file for private study, scholarship, or research. #
#------------------------------------------------------------------------------##
>From OllieOne@aol.com:
Subject: Tabliture
Group: Bush
Song: Testosterone
Date: 5/7/95
                  -------------------
transcribed by:  | Michael R. Oliver |
                  -------------------

music verified by  ********Jaclyn Julia Salomone*********
(That means, I played it for her and she said it souned fine.)

print it out on NOTEPAD for the tabliture to come out correct

This my 5th song that i transribed (or attempted to transcribe) off the
Sixteen Stone album.  This song is yet another great song written
by Gavin Rossdale, this song really isn't that hard.  If you have
any information about Bush touring the New York City area, please
please e-mail me.  -=-=-=-=-=-here is the song=-=-=-=-=-=-=-

Guitar parts:
-------------
these are all the chords used in this song (i think)
C |-----| D |-----| F |------| F# |-----| G |-----| A |-----|
  |-----|   |-----|   |------|    |-----|   |-----|   |-----|
  |--5--|   |--7--|   |--10--|    |-----|   |-----|   |-----|
  |--5--|   |--7--|   |--10--|    |--4--|   |--5--|   |--7--|
  |--3--|   |--5--|   |--8---|    |--4--|   |--5--|   |--7--|
  |-----|   |-----|   |------|    |--2--|   |--3--|   |--5--|

G# |-----| F |-----|
   |-----|   |-----|
   |-----|   |--2--|
   |--6--|   |--3--|
   |--6--|   |--3--|
   |--4--|   |--1--|
[ Tab from: http://www.guitartabs.cc/tabs/b/bush/testosterone_tab_ver_2.html ]
part A (verse):
---------------
E |-----------------------------------------|
B |-----------------------------------------|
G |--5---7---10--7---5--5--7----------------|
D |--5---7---10--7---5--5--7--4---4-4-4--5--|
A |--3---5---8---5---3--3--5--4---4-4-4--5--|
E |---------------------------2---2-2-2--3--|
the verse progression goes C-D-F-D-C-D-F#-G

sometimes, the guitar stops playing and the bass plays the verse
like this:
G |-----------------------------------------|
D |-----------------------------------------|
A |--3---5---8---5---3--3--5----------------|
E |---------------------------2---2-2-2--3--|
and the guitar comes in and plays chords every once in a while

part B:
-------
this part comes in around the lines "never been wrong....."
E |------------------------------------------------|
B |------------------------------------------------|
G |--5---7-7-7---5---7-7-7---5---7-7---------------|
D |--5---7-7-7---5---7-7-7---5---7-7--4--4-4-4--5--|
A |--3---5-5-5---3---5-5-5---3---5-5--4--4-4-4--5--|
E |-----------------------------------2--2-2-2--3--|
so the chord progression is A-D-A-D-A-D-F#-G

part C:
-------
E |---------------------------------------------|
B |---------------------------------------------|
G |-----5------5------5--7--7---------2---------|
D |--7--5---7--5---7--5--7--7--6-5-5--3---------|
A |--7--3---7--3---7--3--5--5--6-5-5--3---------|
E |--5------5------5-----------4-3-3--1---------|


*************************************************************

any suggestions, corrections, requests, comments, or THANK-YOU
notes just e-mail me. have fun with the song

p.s.  does anybody know of any Bush bootlegs? if so please, please,
please, e-mail me (OllieOne@aol.com)

====remember print it out on the NOTEPAD to come out correct====



Comments