Bush - Swallowed Chords & Tabs

 

Swallowed Chords & Tabs

Bush Chords & Tabs

Version: 4 Type: Tab 0 ratings
1 star 2 stars 3 stars 4 stars 5 stars
comments

Swallowed Tab

   
Band: BushSong: SwallowedCD: Razorblade Suitcase
submitted by aKKi and Elliott
[ Tab from: http://www.guitartabs.cc/tabs/b/bush/swallowed_tab_ver_4.html ]
1st Verse:
e-------------------------------|B-------------------------------| 
G-6--X-7---7----11--12--12---12-|D-7--X-7-7------12--12--12-12---| 
A-7--X-5--------12--10--10------|E-5--X-------5/-10--------------| 
Keep playin this until the Chorus starts.1st Chorus:
w/ wah (ALL NOTES ON G STRING BENT 1 WHOLE STEP)
e--------------------------|-------------------------|------13----10-10----10-|---------------------| 
B·-10-10-10-10-10-10-10-10-|-9--9--9--9--9--9--9--9--|-11-13---11-10-10-11-10-|-9--9--9--7-7-9--9--·| 
G--12-12-12-12-12-12-12-12-|-11-11-11-11-11-11-11-11-|-13------13-------13----|-11-11-11-9-9-11-11--| 
D--------------------------|-------------------------|------------------------|---------------------| 
A·-------------------------|-------------------------|------------------------|--------------------·| 
E--------------------------|-------------------------|------------------------|---------------------| 
e--------------------------|--------------------|
B·-10-10-10-10-9--9--9--9--|-9--9--7-7-5-5-5-5-·|
G--12-12-12-12-11-11-11-11-|-11-11-9-9-7-7-7-7--|
D--------------------------|--------------------|
A·-------------------------|-------------------·|
E--------------------------|--------------------|2nd Verse:
e-------------------------------|B-------------------------------| 
G-6--X-7---7----11--12--12---12-|D-7--X-7-7------12--12--12-12---| 
A-7--X-5--------12--10--10------|E-5--X-------5/-10--------------| 
This guitar stops after 2 times and plays Fill 1 twice.Bass leads.2nd Chorus:
Chorus:w/ wah (ALL NOTES ON G STRING BENT 1 WHOLE STEP)
e--------------------------|-------------------------|------13----10-10----10-|---------------------| 
B·-10-10-10-10-10-10-10-10-|-9--9--9--9--9--9--9--9--|-11-13---11-10-10-11-10-|-9--9--9--7-7-9--9--·| 
G--12-12-12-12-12-12-12-12-|-11-11-11-11-11-11-11-11-|-13------13-------13----|-11-11-11-9-9-11-11--| 
D--------------------------|-------------------------|------------------------|---------------------| 
A·-------------------------|-------------------------|------------------------|--------------------·| 
E--------------------------|-------------------------|------------------------|---------------------| 
e--------------------------|--------------------|
B·-10-10-10-10-9--9--9--9--|-9--9--7-7-5-5-5-5-·|
G--12-12-12-12-11-11-11-11-|-11-11-9-9-7-7-7-7--|
D--------------------------|--------------------|
A·-------------------------|-------------------·|
E--------------------------|--------------------|
Interlude: (Played by Gavin right before Nigel starts up)
(This isnt the exact amount of times played, I couldnt count em all)
e----------------------------------------------------------| 
B-15-15-15-15-15-15-15-15-15-15-15-15-15-15-15-15-15-15-15-| 
G-17-17-17-17-17-17-17-17-17-17-17-17-17-17-17-17-17-17-17-| 
D----------------------------------------------------------| 
A----------------------------------------------------------| 
E----------------------------------------------------------| 
ALL NOTES ON G STRING BENT 1 WHOLE STEP(At end, pull G string a little more)
Bridge:w/ wahe--0--0--0--0-3/5--7--8--8-8-8---|
B·-5--5--5--5-----------9-9-9-9-·|G--------------------------------| 
D--------------------------------|A·------------------------------·| 
E--------------------------------|(I doubt this is right, but it sounds alright)
(ALL NOTES ON THE G STRING BENT 1 WHOLE STEP)
e----------------------------------------------|
B·-10-10-10-10-9--9--9--9---9--9--7-7-5-5-5-5-·|
G--12-12-12-12-11-11-11-11--11-11-9-9-7-7-7-7--|
D----------------------------------------------|
A·--------------------------------------------·|
E----------------------------------------------|
This is the last thing Nigel plays:(ALL NOTES ON THE G STRING BENT 1 WHOLE STEP)
e------------------------------------------------------|
B·-10-10-10-10-9--9--9--9--\/-15--15-15-15-X-X-17--17-·| 
G--12-12-12-12-11-11-11-11-\/-17--17-17-17-X-X-19--19--|
D------------------------------------------------------|
A·----------------------------------------------------·| 
E------------------------------------------------------|
(After the last bend on this, keep doing that bend for a while, then go up 2 frets and bend that one twice)
Outro:e---------------------|----------------------|
B---------------------|----------------------|
G---------------------|----------------------|
D---------------------|----------------------|
A-4-4--X-0-4-4-4--X-0-|-4-4-4-X-0-4-4-4--X-0-|
E---------------------|----------------------|
Play this little riff a few times until fade out)Fill 1:|------------|
|------------||-6-6--7-7-7-||-7-7--7-7-7-||-7-7--5-5-5-||-5-5--------| 
Bass line for all Verses:|--------------------------------|
|--------------------------------||-----5-5-5-------------10-10-10-| 
|-5-5--------5/10-10-10----------
Comments