Bush - Swallowed Chords & Tabs

 

Swallowed Chords & Tabs

Bush Chords & Tabs

Version: 2 Type: Tab 0 ratings
1 star 2 stars 3 stars 4 stars 5 stars
comments

Swallowed Tab

#----------------------------------PLEASE NOTE--------------------------------#
#This file is the author's own work and represents their interpretation of the#
#song. You may only use this file for private study, scholarship, or research.#
#-----------------------------------------------------------------------------#
#-- File created with Instab - http://www.pconline.com/~smcarey/instab.html --#
#-----------------------------------------------------------------------------#

Author/Artist: Bush
Title: Swallow
Album: Razorblade Suitcase
Transcribed by: Crank Raven
Email: starsucker_inc@gmx.de

This transcription shows "Swallow" in the regular tune.
You can also tune the guitars half a tone deeper to have the 
starts on the major bars,which is easier to play.

------------------------------------------------------------------------------
------------------------------------------------------------------------------
---6-6------10-10-------------------------------------------------------------
-6-6---6-10-10----10----------------------------------------------------------
-6-4-----10--8----------------------------------------------------------------
-4--------8-------------------------------------------------------------------
  intro  and bridge at                                                  

------------------------------------------------------------------------------
------------------------------------------------------------------------------
-----------------5-5-5-5-5-5-5-5-6-6-6-6-6-6-6-6------------------------------
-6-6-6-6-6-6-6-6-5-5-5-5-5-5-5-5-6-6-6-6-6-6-6-6-8-8-8-8-8-8-8-8--------------
-6-6-6-6-6-6-6-6-3-3-3-3-3-3-3-3-4-4-4-4-4-4-4-4-8-8-8-8-8-8-8-8--------------
-4-4-4-4-4-4-4-4---------------------------------6-6-6-6-6-6-6-6--------------
  refrain   guitar 1    (part 1)                                              

------------------------------------------------------------------------------
---------------------------------------------------------14----------14-------
-13-13-13-13-13-13-13-13-13-12-12-12-12-12-12-12-12---13----13----13----13----
---------------------------------------------------11----------11-------------
------------------------------------------------------------------------------
------------------------------------------------------------------------------
  refrain   guitar 2    (part 1)                                              

------------------------------------------------------------------------------
------------------------------------------------------------------------------
-13-13-12-12-10-10-9-9--------------------------------------------------------
------------------------------------------------------------------------------
------------------------------------------------------------------------------
------------------------------------------------------------------------------
  refrain   guitar 2    (part 1)                                              
[ Tab from: http://www.guitartabs.cc/tabs/b/bush/swallowed_tab_ver_2.html ]
------------------------------------------------------------------------------
------------------------------------------------------------------------------
------------------------------------------------------------------------------
-6-6-6-6-6-6-6-6-8-8-8-8-8-8-8-8-6-6-6-6-6-6-6-6-8-8-8-8-8-8-8-8--------------
-6-6-6-6-6-6-6-6-8-8-8-8-8-8-8-8-6-6-6-6-6-6-6-6-8-8-8-8-8-8-8-8--------------
-4-4-4-4-4-4-4-4-6-6-6-6-6-6-6-6-4-4-4-4-4-4-4-4-6-6-6-6-6-6-6-6--------------
  refrain   guitar 1    (part 2)                                              

------------------------------------------------------------------------------
------------------------------------------------------------------------------
-13-13-13-13-12-12-12-12-13-13-12-12-10-10-9-9--------------------------------
------------------------------------------------------------------------------
------------------------------------------------------------------------------
------------------------------------------------------------------------------
  refrain   guitar 2    (part 2)           2x                                 

------------------------------------------------------------------------------
------------------------------------------------------------------------------
------------------------------------------------------------------------------
------------------------------------------------------------------------------
-------4-4-4-------8-8-8------------------------------------------------------
-4-4-4-------8-8-8------------------------------------------------------------
  bridge                                                                      

------------------------------------------------------------------------------
------------------------------------------------------------------------------
-------6-6-6------------------------------------------------------------------
-6-6-6-6-6-6------------------------------------------------------------------
-6-6-6-4-4-4------------------------------------------------------------------
-4-4-4------------------------------------------------------------------------
  while bass is playing   (listen to the rythm)                               

------------------------------------------------------------------------------
------------------------------------------------------------------------------
-----------------5-5-5-5-5-5-5-5----------------------------------------------
-6-6-6-6-6-6-6-6-5-5-5-5-5-5-5-5----------------------------------------------
-6-6-6-6-6-6-6-6-3-3-3-3-3-3-3-3----------------------------------------------
-4-4-4-4-4-4-4-4--------------------------------------------------------------
  solo    guitar 1    and outro                                               

------------------------------------------------------------------------------
------------------------------------------------------------------------------
-1-1-1-1-5-8-9-5-9-5-9-5-9-5--------------------------------------------------
------------------------------------------------------------------------------
------------------------------------------------------------------------------
------------------------------------------------------------------------------
  solo   guitar 2     (part 1)     2x                                         

------------------------------------------------------------------------------
--------------------------14-14-14-b18-b18-b18--------------------------------
-13-13-13-13-12-12-12-12------------------------------------------------------
------------------------------------------------------------------------------
------------------------------------------------------------------------------
------------------------------------------------------------------------------
  solo   guitar 2     (part 2)     2x                                         

Comments