Bush - Swallowed Chords & Tabs

 

Swallowed Chords & Tabs

Bush Chords & Tabs

Version: 1 Type: Tab 0 ratings
1 star 2 stars 3 stars 4 stars 5 stars
comments

Swallowed Tab

 Swallowed  - Bush

Here's a pretty comprehensive transcription of Swallowed.                       
I've included both guitar parts (guitar 2 is at the end) and there are blank bars
so you can see how the two guitars work together.

My Rig:
Squire Telecaster
Marshall 50 watt amp
Morley wah wah

My Favourite Bands:
Primus
Clutch
No Doubt

My Favourite guitar websites:
http://www.tabclawer.com    - good tab site
http://www.nodoubt.com   - no doubt's official site
http://www.guitarandbass.co.uk   - brilliant guitar lesson site


Guitar 1                                                             
E||------------------------------|--------------------------|
B||------------------------------|--------------------------|
G||--------5---------------6-----|-------------------10-----|
D||------6-6------------6--------|---------------10---------|
A||----6-6-6----x--4-------------|-------x--8------------0--|
E||--4-4-4-4------------------4/-|--8-----------------------|


                                                     
-------------------------|--------------------------|
-------------------------|--------------------------|
---------------6---------|-------------------10b----|
------------------6------|---------------10---------|
--6----x--4--------------|-------x--8------------0--|
--4------------------6/8-|--8-----------------------|


                                                    
------------------------|--------------------------|
------------------------|--------------------------|
------------------6-----|-------------------10-----|
---------------6--------|---------------10------0--|
--6----x--4-------------|-------x--8---------------|
--4------------------6/-|--8-----------------------|


                                                    
--------------------------|------------------------|
--------------------------|------------------------|
--------0--6----6--6------|------------10----------|
-----------6--------------|------10----10----------|
--6--6--------------------|--10--------8-----------|
--4--4--0-------------6/8-|------------------------|


                                                               
|--------------------------|----------------------------------|
|--------------------------|--------------0---------------0-0-|
|*--5--5--5--5----5--5-----|------------------------------x---|
|*--6--6--6--6----6--6-----|--10--10--10--10--10--10--10------|
|---6--6--6--6----6--6--x--|--10--10--10--10--10--10--10------|
|---4--4--4--4----4--4--0--|--8---8---8---8---8---8---8-------|


                                                                
----------------------------------|---------------------------||
-------------0-0-----------0------|-----------0---------------||
--10--10-------10----------10-----|--7--7--7--7--7--7--7-----*||
--11--11--11---11--11--11--11-----|--8--8--8--8--8--8--8-----*||
--11--11--11---11--11--11--11--8--|--8--8--8--8--8--8--8--8---||
--9---9---9----9---9---9---9---0--|--6--6--6--6--6--6--6--0---||


                                                             
--------------------------|---------------------------------|
--------------------------|--0------0---0-----------0---0-0-|
--5--5--5-----------------|--0--------------------------x---|
--6--6--6--6--6--6--6-----|-----10--10--10--10--10--10------|
--6--6--6--6--6--6--6--6--|-----10--10--10--10--10--10------|
--4--4--4--4--4--4--4--0--|-----8---8---8---8---8---8-------|


                                                     
---------------------------|------------------------|
---------------------------|------------------------|
-----5--0------------------|------------------------|
--6--6--x--6---------------|------------------------|
--6--6-----x--4--4--0------|--------x--8--8--8------|
--4--------------------6/8-|--8--8------------------|


                                                                      
-----------------------|---------------------|-----------------------|
-----------------------|---------------------|-----------------------|
-----------------------|---------------------|-----------------------|
-----------------------|---------------------|-----------------------|
-------x--4------------|---------8-----------|--------4--4--4--------|
--4----------------6/8-|--8---------------4--|-------------------6/8-|


                                                                
--------------------|--4--4-----------------|------------------|
------------------0-|--4--4-----------------|------------------|
------------------5-|--5--5----6--6---------|------------------|
--------------------|--6--6----6--6---------|------------------|
--------8-----------|--6--6----4--4----x----|------------------|
--------------------|--4--4-----------------|------------------|


                                               
-------------------------|--------------------|
--------0----------------|--------------------|
--5--5--0--6-------------|--------------------|
--6--6-----6-------------|--------------------|
--6--6-----4------0------|------x--8----------|
--4--4---------------6/8-|--------------------|


                                              
------------------------|--------------------|
------------------------|--------------------|
--5-------6-------------|---------------0----|
--6-------6-------------|---------------0----|
--6----0--4------0------|---------------0----|
--4----0------------6/8-|------0-------------|


                                                             
-------------------------|----------------------------------|
-------------------------|--------------0---------------0-0-|
--5--5--5--5----5--5-----|------------------------------x---|
--6--6--6--6----6--6-----|--10--10--10--10--10--10--10------|
--6--6--6--6----6--6--x--|--10--10--10--10--10--10--10------|
--4--4--4--4----4--4--0--|--8---8---8---8---8---8---8-------|


                                                              
----------------------------------|--------------------------|
-------------0-0-----------0------|-----------0--------------|
--10--10-------10----------10-----|--7--7--7--7--7--7--7-----|
--11--11--11---11--11--11--11-----|--8--8--8--8--8--8--8-----|
--11--11--11---11--11--11--11--8--|--8--8--8--8--8--8--8--8--|
--9---9---9----9---9---9---9---0--|--6--6--6--6--6--6--6--0--|


                                                               
|--------------------------|----------------------------------|
|--------------------------|--------------0---------------0-0-|
|*--5--5--5--5----5--5-----|------------------------------x---|
|*--6--6--6--6----6--6-----|--10--10--10--10--10--10--10------|
|---6--6--6--6----6--6--x--|--10--10--10--10--10--10--10------|
|---4--4--4--4----4--4--0--|--8---8---8---8---8---8---8-------|


                                                                
----------------------------------|---------------------------||
-------------0-0-----------0------|-----------0---------------||
--10--10-------10----------10-----|--7--7--7--7--7--7--7-----*||
--11--11--11---11--11--11--11-----|--8--8--8--8--8--8--8-----*||
--11--11--11---11--11--11--11--8--|--8--8--8--8--8--8--8--8---||
--9---9---9----9---9---9---9---0--|--6--6--6--6--6--6--6--0---||


                                                             
---------------------------|--------------------------------|
---------------------------|--------------------------------|
--5--5--5--5--5--5--5------|--9---9---9---------------------|
--6--6--6--6--6--6--6------|--10--10--10--10--10--10--10----|
--6--6--6--6--6--6--6------|--10--10--10--10--10--10--10----|
--4--4--4--4--4--4--4--4/8-|--8---8---8---8---8---8---8-----|


                                   
----------------------------------|
----------------------------------|
--9-9-9-9-9-9-9-9-9-9-9-9-9-9-9-9-|
----------------------------------|
----------------------------------|
----------------------------------|


                                                                  
--------------------------------------|--------------------------|
-----------------------------------0--|--------------------------|
--9-9-9-9-9b9b9b9b9b10-10-10-10-10-0--|--5--5--5--5--5--5--5-----|
--------------------------------------|--6--6--6--6--6--6--6-----|
--------------------------------------|--6--6--6--6--6--6--6-----|
--------------------------------------|--4--4--4--4--4--4--4--0--|


                                                             
---------------------------------|--------------------------|
---------------------------------|--------------------------|
---------------------------------|--5--5--5--5--5--5--x-----|
--10--10--10--10--10--10--10--x--|--6--6--6--6--6--6--x-----|
--10--10--10--10--10--10--10--x--|--6--6--6--6--6--6--x-----|
--8---8---8---8---8---8---8---x--|--4--4--4--4--4--4--x--0--|


                                                              
----------------------------------|--------------------------|
----------------------------------|--------------------------|
--------------------------0-0-0-0-|--5--5--5--5--5--5--5--x--|
--10--10--10--10--10--10----------|--6--6--6--6--6--6--6--x--|
--10--10--10--10--10--10----------|--6--6--6--6--6--6--6--x--|
--8---8---8---8---8---8-----------|--4--4--4--4--4--4--4--x--|


                                                           
-------------------------------|--------------------------|
-------------------------------|--------------------------|
--------9---9------------------|--5--5--5--5--5--5--5--5--|
----10--10--10--10--10--x--0-0-|--6--6--6--6--6--6--6--6--|
----10--10--10--10--10--x------|--6--6--6--6--6--6--6--6--|
----8---8---8---8---8---x------|--4--4--4--4--4--4--4--4--|


                                                    
-------------------------------|-------------------|
-------------------------------|-------------------|
-------------------------------|--5----------------|
----10--10--10--10--10--10-----|--6----------------|
----10--10--10--10--10--10--7--|--6----------------|
----8---8---8---8---8---8------|--4----------------|


                                             
------------------|-------------------------|
------------------|-----------6-------------|
------------------|--------0--6-------------|
------------------|-----------6--6----6-----|
------------------|--6--6-----4-------0-----|
------------------|--4--4----------------6/-|


                                                         
----------------------------|---------------------------|
----------------------------|---------------------------|
---------------------10-----|--5--------------6--6------|
-----10----------10------0--|--6--6--------6-----x------|
-----10-----8---------------|--6-----x--4--------0------|
--8------x------------------|--4--------------------6/8-|


                                                            
-------------------------------|---------------------------|
-------------------------------|---------------------------|
---------------------10-----x--|--------0----------6-------|
------10-----10--10------x-----|-----6-----6----6------0---|
--10------x--8-----------------|--6--------4---------0-----|
-------------------------------|--4----------------------6/|


                                                      
--------------------------|--------------------------|
--------------------------|--------------------------|
----------------10-----0--|-----------6----6--6------|
-------x--10--------------|--6--6-----6--------------|
--------------------0-----|--6--6--x----------0------|
--8-----------------------|--4-------------------5-6-|


                                                      
-------------------------||--------------------------|
-------------------------||--------------------------|
---------x------------x--||*--5--5--5--5----5--5-----|
------------10--------x--||*--6--6--6--6----6--6-----|
------------8------------||---6--6--6--6----6--6--x--|
--6-8--------------------||---4--4--4--4----4--4--0--|


                                                                      
----------------------------------|----------------------------------|
--------------0---------------0-0-|-------------0-0-----------0------|
------------------------------x---|--10--10-------10----------10-----|
--10--10--10--10--10--10--10------|--11--11--11---11--11--11--11-----|
--10--10--10--10--10--10--10------|--11--11--11---11--11--11--11--8--|
--8---8---8---8---8---8---8-------|--9---9---9----9---9---9---9---0--|


                                                        
---------------------------||--------------------------|
-----------0---------------||--------------------------|
--7--7--7--7--7--7--7-----*||--5--5--5--5--5--5--5-----|
--8--8--8--8--8--8--8-----*||--6--6--6--6--6--6--6-----|
--8--8--8--8--8--8--8--8---||--6--6--6--6--6--6--6-----|
--6--6--6--6--6--6--6--0---||--4--4--4--4--4--4--4--0--|


                                                             
---------------------------------|--------------------------|
---------------------------------|--------------------------|
---------------------------------|--5--5--5--5--5--5--x-----|
--10--10--10--10--10--10--10--x--|--6--6--6--6--6--6--x-----|
--10--10--10--10--10--10--10--x--|--6--6--6--6--6--6--x-----|
--8---8---8---8---8---8---8---x--|--4--4--4--4--4--4--x--0--|


                                                              
----------------------------------|--------------------------|
----------------------------------|--------------------------|
--------------------------0-0-0-0-|--5--5--5--5--5--5--5--x--|
--10--10--10--10--10--10----------|--6--6--6--6--6--6--6--x--|
--10--10--10--10--10--10----------|--6--6--6--6--6--6--6--x--|
--8---8---8---8---8---8-----------|--4--4--4--4--4--4--4--x--|


                                                           
-------------------------------|--------------------------|
-------------------------------|--------------------------|
--------9---9------------------|--5--5--5--5--5--5--5--5--|
----10--10--10--10--10--x--0-0-|--6--6--6--6--6--6--6--6--|
----10--10--10--10--10--x------|--6--6--6--6--6--6--6--6--|
----8---8---8---8---8---x------|--4--4--4--4--4--4--4--4--|


                                                           
-------------------------------|--------------------------|
-------------------------------|--------------------------|
-------------------------------|--5--5--5--5--5--5--5-----|
----10--10--10--10--10--10-----|--6--6--6--6--6--6--6-----|
----10--10--10--10--10--10--7--|--6--6--6--6--6--6--6-----|
----8---8---8---8---8---8------|--4--4--4--4--4--4--4--0--|


                                                             
---------------------------------|--------------------------|
---------------------------------|--------------------------|
---------------------------------|--5--5--5--5--5--5--x-----|
--10--10--10--10--10--10--10--x--|--6--6--6--6--6--6--x-----|
--10--10--10--10--10--10--10--x--|--6--6--6--6--6--6--x-----|
--8---8---8---8---8---8---8---x--|--4--4--4--4--4--4--x--0--|


                                                              
----------------------------------|--------------------------|
----------------------------------|--------------------------|
--------------------------0-0-0-0-|--5--5--5--5--5--5--5--x--|
--10--10--10--10--10--10----------|--6--6--6--6--6--6--6--x--|
--10--10--10--10--10--10----------|--6--6--6--6--6--6--6--x--|
--8---8---8---8---8---8-----------|--4--4--4--4--4--4--4--x--|


                                                           
-------------------------------|--------------------------|
-------------------------------|--------------------------|
--------9---9------------------|--5--5--5--5--5--5--5--5--|
----10--10--10--10--10--x--0-0-|--6--6--6--6--6--6--6--6--|
----10--10--10--10--10--x------|--6--6--6--6--6--6--6--6--|
----8---8---8---8---8---x------|--4--4--4--4--4--4--4--4--|


                                                          
-------------------------------|-------------------------|
-------------------------------|--------0----------------|
-------------------------------|--10-------------10------|
----10--10--10--10--10--10-----|--11-----------------11--|
----10--10--10--10--10--10--7--|--11-----------------11/-|
----8---8---8---8---8---8------|--9----------------------|


                                                       
---------------------------|--------------------------|
-----------------------0-0-|--------------------------|
--------7--------7---------|----7-----7---7-----------|
--8--8--------8-----8------|-------8----------8--8/10-|
--8--------8--------8------|------------------8--8/10-|
--6------------------------|--------------------------|


                                               
------------------------|---------------------|
------------------------|---------------------|
--------x------9--------|---------------------|
----10-----10-----------|---------------10/---|
------------------------|---------------------|
------------------------|------------0--------|

[ Tab from: http://www.guitartabs.cc/tabs/b/bush/swallowed_tab.html ]
                                                          
--------------------------||----------------------------||
--------------------------||----------------------------||
--------------------------||*--------------------------*||
--------------------------||*--------------------------*||
--6--6b-6--------------6--||---6--6---------------------||
--4--4b-0--4--4--4--x--4--||---4--4--x--4--4--4--x--4---||





Guitar 2
                                                           
E||------------------------------|--------------------------|
B||------------------------------|--------------------------|
G||--------5---------------6-----|-------------------10-----|
D||------6-6------------6--------|---------------10---------|
A||----6-6-6----x--4-------------|-------x--8------------0--|
E||--4-4-4-4------------------4/-|--8-----------------------|


                                                     
-------------------------|--------------------------|
-------------------------|--------------------------|
---------------6---------|-------------------10b----|
------------------6------|---------------10---------|
--6----x--4--------------|-------x--8------------0--|
--4------------------6/8-|--8-----------------------|


                                                    
------------------------|--------------------------|
------------------------|--------------------------|
------------------6-----|-------------------10-----|
---------------6--------|---------------10------0--|
--6----x--4-------------|-------x--8---------------|
--4------------------6/-|--8-----------------------|


                                                    
--------------------------|------------------------|
--------------------------|------------------------|
--------0--6----6--6------|------------10----------|
-----------6--------------|------10----10----------|
--6--6--------------------|--10--------8-----------|
--4--4--0-------------6/8-|------------------------|


                                                               
|--------------------------|----------------------------------|
|--------------------------|--------------0---------------0-0-|
|*--5--5--5--5----5--5-----|------------------------------x---|
|*--6--6--6--6----6--6-----|--10--10--10--10--10--10--10------|
|---6--6--6--6----6--6--x--|--10--10--10--10--10--10--10------|
|---4--4--4--4----4--4--0--|--8---8---8---8---8---8---8-------|


                                                                
----------------------------------|---------------------------||
-------------0-0-----------0------|-----------0---------------||
--10--10-------10----------10-----|--7--7--7--7--7--7--7-----*||
--11--11--11---11--11--11--11-----|--8--8--8--8--8--8--8-----*||
--11--11--11---11--11--11--11--8--|--8--8--8--8--8--8--8--8---||
--9---9---9----9---9---9---9---0--|--6--6--6--6--6--6--6--0---||


                                                             
--------------------------|---------------------------------|
--------------------------|--0------0---0-----------0---0-0-|
--5--5--5-----------------|--0--------------------------x---|
--6--6--6--6--6--6--6-----|-----10--10--10--10--10--10------|
--6--6--6--6--6--6--6--6--|-----10--10--10--10--10--10------|
--4--4--4--4--4--4--4--0--|-----8---8---8---8---8---8-------|


                                                     
---------------------------|------------------------|
---------------------------|------------------------|
-----5--0------------------|------------------------|
--6--6--x--6---------------|------------------------|
--6--6-----x--4--4--0------|--------x--8--8--8------|
--4--------------------6/8-|--8--8------------------|


                                                                      
-----------------------|---------------------|-----------------------|
-----------------------|---------------------|-----------------------|
-----------------------|---------------------|-----------------------|
-----------------------|---------------------|-----------------------|
-------x--4------------|---------8-----------|--------4--4--4--------|
--4----------------6/8-|--8---------------4--|-------------------6/8-|


                                                                
--------------------|--4--4-----------------|------------------|
------------------0-|--4--4-----------------|------------------|
------------------5-|--5--5----6--6---------|------------------|
--------------------|--6--6----6--6---------|------------------|
--------8-----------|--6--6----4--4----x----|------------------|
--------------------|--4--4-----------------|------------------|


                                               
-------------------------|--------------------|
--------0----------------|--------------------|
--5--5--0--6-------------|--------------------|
--6--6-----6-------------|--------------------|
--6--6-----4------0------|------x--8----------|
--4--4---------------6/8-|--------------------|


                                              
------------------------|--------------------|
------------------------|--------------------|
--5-------6-------------|---------------0----|
--6-------6-------------|---------------0----|
--6----0--4------0------|---------------0----|
--4----0------------6/8-|------0-------------|


                                                             
-------------------------|----------------------------------|
-------------------------|--------------0---------------0-0-|
--5--5--5--5----5--5-----|------------------------------x---|
--6--6--6--6----6--6-----|--10--10--10--10--10--10--10------|
--6--6--6--6----6--6--x--|--10--10--10--10--10--10--10------|
--4--4--4--4----4--4--0--|--8---8---8---8---8---8---8-------|


                                                              
----------------------------------|--------------------------|
-------------0-0-----------0------|-----------0--------------|
--10--10-------10----------10-----|--7--7--7--7--7--7--7-----|
--11--11--11---11--11--11--11-----|--8--8--8--8--8--8--8-----|
--11--11--11---11--11--11--11--8--|--8--8--8--8--8--8--8--8--|
--9---9---9----9---9---9---9---0--|--6--6--6--6--6--6--6--0--|


                                                               
|--------------------------|----------------------------------|
|--------------------------|--------------0---------------0-0-|
|*--5--5--5--5----5--5-----|------------------------------x---|
|*--6--6--6--6----6--6-----|--10--10--10--10--10--10--10------|
|---6--6--6--6----6--6--x--|--10--10--10--10--10--10--10------|
|---4--4--4--4----4--4--0--|--8---8---8---8---8---8---8-------|


                                                                
----------------------------------|---------------------------||
-------------0-0-----------0------|-----------0---------------||
--10--10-------10----------10-----|--7--7--7--7--7--7--7-----*||
--11--11--11---11--11--11--11-----|--8--8--8--8--8--8--8-----*||
--11--11--11---11--11--11--11--8--|--8--8--8--8--8--8--8--8---||
--9---9---9----9---9---9---9---0--|--6--6--6--6--6--6--6--0---||


                                                             
---------------------------|--------------------------------|
---------------------------|--------------------------------|
--5--5--5--5--5--5--5------|--9---9---9---------------------|
--6--6--6--6--6--6--6------|--10--10--10--10--10--10--10----|
--6--6--6--6--6--6--6------|--10--10--10--10--10--10--10----|
--4--4--4--4--4--4--4--4/8-|--8---8---8---8---8---8---8-----|


                                   
----------------------------------|
----------------------------------|
--9-9-9-9-9-9-9-9-9-9-9-9-9-9-9-9-|
----------------------------------|
----------------------------------|
----------------------------------|


                                                                  
--------------------------------------|--------------------------|
-----------------------------------0--|--------------------------|
--9-9-9-9-9b9b9b9b9b10-10-10-10-10-0--|--5--5--5--5--5--5--5-----|
--------------------------------------|--6--6--6--6--6--6--6-----|
--------------------------------------|--6--6--6--6--6--6--6-----|
--------------------------------------|--4--4--4--4--4--4--4--0--|


                                                             
---------------------------------|--------------------------|
---------------------------------|--------------------------|
---------------------------------|--5--5--5--5--5--5--x-----|
--10--10--10--10--10--10--10--x--|--6--6--6--6--6--6--x-----|
--10--10--10--10--10--10--10--x--|--6--6--6--6--6--6--x-----|
--8---8---8---8---8---8---8---x--|--4--4--4--4--4--4--x--0--|


                                                              
----------------------------------|--------------------------|
----------------------------------|--------------------------|
--------------------------0-0-0-0-|--5--5--5--5--5--5--5--x--|
--10--10--10--10--10--10----------|--6--6--6--6--6--6--6--x--|
--10--10--10--10--10--10----------|--6--6--6--6--6--6--6--x--|
--8---8---8---8---8---8-----------|--4--4--4--4--4--4--4--x--|


                                                           
-------------------------------|--------------------------|
-------------------------------|--------------------------|
--------9---9------------------|--5--5--5--5--5--5--5--5--|
----10--10--10--10--10--x--0-0-|--6--6--6--6--6--6--6--6--|
----10--10--10--10--10--x------|--6--6--6--6--6--6--6--6--|
----8---8---8---8---8---x------|--4--4--4--4--4--4--4--4--|


                                                    
-------------------------------|-------------------|
-------------------------------|-------------------|
-------------------------------|--5----------------|
----10--10--10--10--10--10-----|--6----------------|
----10--10--10--10--10--10--7--|--6----------------|
----8---8---8---8---8---8------|--4----------------|


                                             
------------------|-------------------------|
------------------|-----------6-------------|
------------------|--------0--6-------------|
------------------|-----------6--6----6-----|
------------------|--6--6-----4-------0-----|
------------------|--4--4----------------6/-|


                                                         
----------------------------|---------------------------|
----------------------------|---------------------------|
---------------------10-----|--5--------------6--6------|
-----10----------10------0--|--6--6--------6-----x------|
-----10-----8---------------|--6-----x--4--------0------|
--8------x------------------|--4--------------------6/8-|


                                                            
-------------------------------|---------------------------|
-------------------------------|---------------------------|
---------------------10-----x--|--------0----------6-------|
------10-----10--10------x-----|-----6-----6----6------0---|
--10------x--8-----------------|--6--------4---------0-----|
-------------------------------|--4----------------------6/|


                                                      
--------------------------|--------------------------|
--------------------------|--------------------------|
----------------10-----0--|-----------6----6--6------|
-------x--10--------------|--6--6-----6--------------|
--------------------0-----|--6--6--x----------0------|
--8-----------------------|--4-------------------5-6-|


                                                      
-------------------------||--------------------------|
-------------------------||--------------------------|
---------x------------x--||*--5--5--5--5----5--5-----|
------------10--------x--||*--6--6--6--6----6--6-----|
------------8------------||---6--6--6--6----6--6--x--|
--6-8--------------------||---4--4--4--4----4--4--0--|


                                                                      
----------------------------------|----------------------------------|
--------------0---------------0-0-|-------------0-0-----------0------|
------------------------------x---|--10--10-------10----------10-----|
--10--10--10--10--10--10--10------|--11--11--11---11--11--11--11-----|
--10--10--10--10--10--10--10------|--11--11--11---11--11--11--11--8--|
--8---8---8---8---8---8---8-------|--9---9---9----9---9---9---9---0--|


                                                        
---------------------------||--------------------------|
-----------0---------------||--------------------------|
--7--7--7--7--7--7--7-----*||--5--5--5--5--5--5--5-----|
--8--8--8--8--8--8--8-----*||--6--6--6--6--6--6--6-----|
--8--8--8--8--8--8--8--8---||--6--6--6--6--6--6--6-----|
--6--6--6--6--6--6--6--0---||--4--4--4--4--4--4--4--0--|


                                                             
---------------------------------|--------------------------|
---------------------------------|--------------------------|
---------------------------------|--5--5--5--5--5--5--x-----|
--10--10--10--10--10--10--10--x--|--6--6--6--6--6--6--x-----|
--10--10--10--10--10--10--10--x--|--6--6--6--6--6--6--x-----|
--8---8---8---8---8---8---8---x--|--4--4--4--4--4--4--x--0--|


                                                              
----------------------------------|--------------------------|
----------------------------------|--------------------------|
--------------------------0-0-0-0-|--5--5--5--5--5--5--5--x--|
--10--10--10--10--10--10----------|--6--6--6--6--6--6--6--x--|
--10--10--10--10--10--10----------|--6--6--6--6--6--6--6--x--|
--8---8---8---8---8---8-----------|--4--4--4--4--4--4--4--x--|


                                                           
-------------------------------|--------------------------|
-------------------------------|--------------------------|
--------9---9------------------|--5--5--5--5--5--5--5--5--|
----10--10--10--10--10--x--0-0-|--6--6--6--6--6--6--6--6--|
----10--10--10--10--10--x------|--6--6--6--6--6--6--6--6--|
----8---8---8---8---8---x------|--4--4--4--4--4--4--4--4--|


                                                           
-------------------------------|--------------------------|
-------------------------------|--------------------------|
-------------------------------|--5--5--5--5--5--5--5-----|
----10--10--10--10--10--10-----|--6--6--6--6--6--6--6-----|
----10--10--10--10--10--10--7--|--6--6--6--6--6--6--6-----|
----8---8---8---8---8---8------|--4--4--4--4--4--4--4--0--|


                                                             
---------------------------------|--------------------------|
---------------------------------|--------------------------|
---------------------------------|--5--5--5--5--5--5--x-----|
--10--10--10--10--10--10--10--x--|--6--6--6--6--6--6--x-----|
--10--10--10--10--10--10--10--x--|--6--6--6--6--6--6--x-----|
--8---8---8---8---8---8---8---x--|--4--4--4--4--4--4--x--0--|


                                                              
----------------------------------|--------------------------|
----------------------------------|--------------------------|
--------------------------0-0-0-0-|--5--5--5--5--5--5--5--x--|
--10--10--10--10--10--10----------|--6--6--6--6--6--6--6--x--|
--10--10--10--10--10--10----------|--6--6--6--6--6--6--6--x--|
--8---8---8---8---8---8-----------|--4--4--4--4--4--4--4--x--|


                                                           
-------------------------------|--------------------------|
-------------------------------|--------------------------|
--------9---9------------------|--5--5--5--5--5--5--5--5--|
----10--10--10--10--10--x--0-0-|--6--6--6--6--6--6--6--6--|
----10--10--10--10--10--x------|--6--6--6--6--6--6--6--6--|
----8---8---8---8---8---x------|--4--4--4--4--4--4--4--4--|


                                                          
-------------------------------|-------------------------|
-------------------------------|--------0----------------|
-------------------------------|--10-------------10------|
----10--10--10--10--10--10-----|--11-----------------11--|
----10--10--10--10--10--10--7--|--11-----------------11/-|
----8---8---8---8---8---8------|--9----------------------|


                                                       
---------------------------|--------------------------|
-----------------------0-0-|--------------------------|
--------7--------7---------|----7-----7---7-----------|
--8--8--------8-----8------|-------8----------8--8/10-|
--8--------8--------8------|------------------8--8/10-|
--6------------------------|--------------------------|


                                               
------------------------|---------------------|
------------------------|---------------------|
--------x------9--------|---------------------|
----10-----10-----------|---------------10/---|
------------------------|---------------------|
------------------------|------------0--------|


                                                          
--------------------------||----------------------------||
--------------------------||----------------------------||
--------------------------||*--------------------------*||
--------------------------||*--------------------------*||
--6--6b-6--------------6--||---6--6---------------------||
--4--4b-0--4--4--4--x--4--||---4--4--x--4--4--4--x--4---||



Comments