Bush - Speed Kills Chords & Tabs

 

Speed Kills Chords & Tabs

Bush Chords & Tabs

Version: 1 Type: Tab 0 ratings
1 star 2 stars 3 stars 4 stars 5 stars
comments

Speed Kills Tab

   
##################################################################################
# This file is the author's own work and represents their interpretation of the  #
# song. You may only use this file for private study, scholarship, or research.  #
##################################################################################

Artist: Bush
Song: "Speed Kills" (a.k.a. The People That We Love)
Album: Golden State (2001)
Transcribed by: Joe (Superjoe45@yahoo.com)
   ___________________________________________________________
  /                                                           \
 | NOTE: this may not be 100% accurate, but it's pretty close, |
 |       either way it gives you a starting point.             |
  \___________________________________________________________/

Riff 1: (play guitars 1 & 2 simultaneously)
[ Tab from: http://www.guitartabs.cc/tabs/b/bush/speed_kills_tab.html ]
Guitar 2:
e|-0-0-0-0-0-0-0-0-0-0-0-0-0-0-0-:|
B|-5-4-4-5-4-4-5-4-4-5-4-4-5-7-5-:|
G|-------------------------------:|
D|-------------------------------:|
A|-------------------------------:|
E|-------------------------------:|

Guitar 1:
e|---------------------|
B|---------------------|
G|-2-2-----5-5-2-0-2---|
D|-2-2-2-2-5-5-2-0-2---|
A|-0-0-2-2-3-3-0-0-0---|
E|-----0-0-------------|


Riff 2: (play guitars 1 & 2 simultaneously)

Guitar 2:
e|-0-0-0-0-0-0-0-0-0-0-0-0-0-0-0-0-|
B|-4-4-4-4-4-4-4-4-5-5-5-5-5-5-5-5-|
G|---------------------------------|
D|---------------------------------|
A|---------------------------------|
E|---------------------------------|

Guitar 1:
e|---------------------|
B|---------------------|
G|-2-2-----5-5-2-0-2---|
D|-2-2-2-2-5-5-2-0-2---|
A|-0-0-2-2-3-3-0-0-0---|
E|-----0-0-------------|


Intro: 

RIFF 1 (8x)-(Guitar 1 only on 3rd & 5th-8th times)
Comments