Bush - Solutions Chords & Tabs

 

Solutions Chords & Tabs

Bush Chords & Tabs

Version: 1 Type: Tab 0 ratings
1 star 2 stars 3 stars 4 stars 5 stars
comments

Solutions Tab

Solutions - Bush
Written By Gavin Rossdale
On The Album Golden State 
Normal Tuning
Tabbed By AJ Vanb

Key: \ = Slide up   / = Slide down
     ^ = Bend       + = Chorus starts here

Intro: x 3 - Clean
|----------------------------------------------------------------|
|----------------------------------------------------------------|
|------9---------9---------9---------9---------9---------9-------|
|-9-11---11-9-11---11-9-11---11-9-11---11-9-11---11-9-11---11-9--|
|----------------------------------------------------------------|
|----------------------------------------------------------------|

|----------------------------------------------------------------|
|----------------------------------------------------------------|
|----9---------9-------------------------------------------------|
|-11---11-9-11---11----------------------------------------------|
|----------------------------------------------------------------|
|----------------------------------------------------------------|

No guitar is played in the verse, and when it comes to the “We move...” bit, play the intro twice.

No guitar again after that, then it’s the intro again for the “We’re glued...” bit, then comes the bridge.

Bridge and Chorus: - Distorted and with Volume
|-----------------5-5-5-5-5-5-5-5-5-5----------------------------|
|-----------------5-5-5-5-5-5-5-5-5-5----------------------------|
|-----------------7-7-7-7-7-7-7-7-7-7-4-4-4----------------------|
|-4-4-4-4-4-4-4-4-7-7-7-7-7-7-7-7-7-7-4-4-4----------------------|
|-4-4-4-4-4-4-4-4-5-5-5-5-5-5-5-5-5-5-2-2-2-3-3-3-2-2-2-2-2-2-0--|
|-2-2-2-2-2-2-2-2------------------------------------------------|

|----------------------------------------------------------------|
|----------------------------------------------------------------|
|--------------------------------6-6-6-9-9-------------6-6-6-9-9-|
|--------------------4-4-4-4-4-4-6-6-6-9-9-4-4-4-4-4-4-6-6-6-9-9-|
|-0-0-0-0------------4-4-4-4-4-4-4-4-4-7-7-4-4-4-4-4-4-4-4-4-7-7-|
|---------3-3-3-3\10/2-2-2-2-2-2-----------2-2-2-2-2-2-----------|
                     + 
|----------------------------------------------------------------|
|----------------------------------------------------------------|
|-------------6-6-6-9-9-------------6-6-6-9-9--------------------|
|-4-4-4-4-4-4-6-6-6-9-9-4-4-4-4-4-4-6-6-6-9-9--------------------|
|-4-4-4-4-4-4-4-4-4-7-7-4-4-4-4-4-4-4-4-4-7-7--------------------|
|-2-2-2-2-2-2-----------2-2-2-2-2-2------------------------------|

After this it’s straight back into the intro, then nothing’s played for the 3rd verse. Repeat the Bridge and Chorus again adding another 2 Choruses on the end. Then comes the middle 8th and solo.

Middle 8th:
|----------------------------------------------------------------|
|----------------------------------------------------------------|
|-4-4-4-4-4---------------------------4-4-4-4-4------------------|
|-4-4-4-4-4---------4-4-4-4-4---------4-4-4-4-4------------------|
|-2-2-2-2-2-3-2-0-2-4-4-4-4-4---------2-2-2-2-2-3-2-0-2----------|
|-------------------2-2-2-2-2-3-2-0-2----------------------------|

This is only played the once and then after this it’s straight into the solo, which isn’t bad for Bush.



[ Tab from: http://www.guitartabs.cc/tabs/b/bush/solutions_tab.html ]
Solo: - with slight wah.
|----------------------------------------------------------------|
|/10-10-10-10-10-10-10-10-10-10-10\17^-17-17^-17-17^-17-17-15-14-|
|----------------------------------------------------------------|
|----------------------------------------------------------------|
|----------------------------------------------------------------|
|----------------------------------------------------------------|

|-----------------------------------20^-(gradual)-17-------------|
|-22^-22-22-21-20-20-20-20-20-20-20------------------------------|
|----------------------------------------------------------------|
|----------------------------------------------------------------|
|----------------------------------------------------------------|
|----------------------------------------------------------------|

Then comes another Bridge on the “She makes see God...” part but just before it goes into the chorus, instead of playing the usual bridge ending, play this instead:

Alternate Bridge Ending:
|----------------------------------------------------------------|
|----------------------------------------------------------------|
|-4-4-4----------------------------------------------------------|
|-4-4-4----------------------------------------------------------|
|-2-2-2-3-3-3-2-2-2-2-2-2-2-2\5-5-5-5-5-5-5-5/7-7-7-7-7-7-7/10---|
|----------------------------------------------------------------|

Then just play the chorus over again missing out the 4th chord sequence where another solo comes in:

Solo: - with heavy wah.
|----------------------------------------------------------------|
|-7-7-7-7-7-7-7-7-7-7-7-7-7-7-7-7-7-7-7-7-7-7-7-7-7-7-7-7-7-7-7-7|
|----------------------------------------------------------------|
|----------------------------------------------------------------|
|----------------------------------------------------------------|
|----------------------------------------------------------------|

|----------------------------------------------------------------|
|-14-14-14-14-14-14-14-14-14-14-14-14-14-14-14-14-14-14-14-14-14-|
|----------------------------------------------------------------|
|----------------------------------------------------------------|
|----------------------------------------------------------------|
|----------------------------------------------------------------|

|----------------------------------------------------------------|
|-14-14-14-14-14-14-14-14-14-14-14-14-14-14-14-14-14-14-14-14-14-|
|----------------------------------------------------------------|
|----------------------------------------------------------------|
|----------------------------------------------------------------|
|----------------------------------------------------------------|

|----------------------------------------------------------------|
|-14-14-14-14-14-14-19^-(full bend)------------------------------|
|----------------------------------------------------------------|
|----------------------------------------------------------------|
|----------------------------------------------------------------|
|----------------------------------------------------------------|
                                 
There you have it. If there are any corrections, no matter how small, 
please send them to Vanjoalja@aol.com, or e-mail me for comments etc.
Comments