Bush - People That We Love Chords & Tabs

 

People That We Love Chords & Tabs

Bush Chords & Tabs

Version: 9 Type: Tab 0 ratings
1 star 2 stars 3 stars 4 stars 5 stars
comments

People That We Love Tab

   
#----------------------------------PLEASE NOTE--------------------------------#
#This file is the author's own work and represents their interpretation of the#
#song. You may only use this file for private study, scholarship, or research.#
#-----------------------------------------------------------------------------#
By: StonedRocker
Song: Bush - The People that we Love
Notes: Standard Tuning


Bush - 'The People that we Love'


  Intro  
|----------------------------------11-------|
|-10-----10-----10-----10-------10----10----|
|----8-8----8-8----8-8----8-8-9-------------|
|-------------------------------------------|
|-------------------------------------------|
|-------------------------------------------|
 

  
  Intro/ Gtr. 2 Chorus
|--------------------------------------|
|--------------------------------------|
|--------------------------------------|
|-7-7-7-2-2-2-2-10-10-10-10-7\5-7-7----|
|-7-7-7-2-2-2-2-10-10-10-10-7\5-7-7----|
|-5-5-5-0-0-0-0--8--8--8--8-5\3-5-5----|

 

 Verse
|--------------------------------------|
|--------------------------------------|
|--------------------------------------|
|--------------------------------------|
|-7-7-7-2-2-2-2-10-10-10-10-7\5-7-7----|
|-5-5-5-0-0-0-0--8--8--8--8-5\3-5-5----|

 

 Gtr. 1 Chorus
|----------------------------|
|----------------------------|
|-8-8-8-8-8-8/9-9-9-9-9-9----|
|----------------------------|
|----------------------------|
|----------------------------|


[ Tab from: http://www.guitartabs.cc/tabs/b/bush/people_that_we_love_tab_ver_9.html ]
Interlude 
|-----------------------------------------------------------------------------|
|-----------------------------------------------------------------------------|
|----------------------10-----------------------------------------------------|
|-3--(x16)--7--(x16)---10-(x16)--10-10-1010-10-\9-9-99-9----------------------|
|-3---------7----------8---------10-10-1010-10-\9-9-99-9----------------------|
|-1---------5--------------------8--8--8 8--8--\7-7-77-7----------------------|
   
|------------------------------------|
|------------------------------------|
|------------------------------------|
|------------------------------------|
|-----------------3-3-3-3------------|
|-5-5-5-5-0-0-0-0---------5\3-5-5----|

  

   Bridge
|-----------------|
|-----------------|
|-----------------|
|-7-2-10-7-5/7\5--|
|-7-2-10-7-5/7\5--|
|-5-0--8-5-3/5\3--|

 

  Solo
|-----------------------------------------------------------------------------|
|--15b16----------------------------------------------------------------------|
|-----------------------------------------------------------------------------|
|-----------12/14b-------------------------14b-------------------------14b----|
|--------12b-------12-14-14b15b14-12-14-12-----12-14-14b15b14-12-14-12--------|
|-----------------------------------------------------------------------------|

b = bend
\ / = slide

------------------------------------------------------------------------------
** Generated using Power Tab Editor by Brad Larsen: The Official Power Tab Web Site
Comments