Bush - People That We Love Chords & Tabs

 

People That We Love Chords & Tabs

Bush Chords & Tabs

Version: 6 Type: Tab 0 ratings
1 star 2 stars 3 stars 4 stars 5 stars
comments

People That We Love Tab

Artist: Bush 
Tabbed by: Rolando Salcedo Escobedo 
Standart tunning 
Intro: 
1st guitar, 1st riff. 
---------------------------------------- 
---------------------------------------- 
14-----14-----14------14-----14-17-14--- 
--13-13--13-13--13-13---13-13--------13- 
---------------------------------------- 
---------------------------------------- 
a second guitar starts with the main riff. 
----------------------------- 
----------------------------- 
-------------5-5-5----------- 
7-7-7--2-2-2-5-5-5-7-7\5/-7-- 
7-7-7--2-2-2-3-3-3-7-7\5/-7-- 
5-5-5--0-0-0-------5-5\3/-5-- 
then the 1st guitar does a second riff. 
----------------------------- 
xxxxxxx-xxxxxxxxx------------ 
8888888-999999999------------ 
xxxxxxx-xxxxxxxxx------------ 
----------------------------- 
----------------------------- 
verse: is the main riff with palm mute 
and the second riff in the middle. 
----------------------------- 
----------------------------- 
-------------5-5-5----------- 
7-7-7--2-2-2-5-5-5-7-7\5/-7-- 
7-7-7--2-2-2-3-3-3-7-7\5/-7-- 
5-5-5--0-0-0-------5-5\3/-5 
chorus: main riff without palm mute 
bridge: 
|-------pm----------| 
------------------------------------------------------ 
------------------------------------------------------ 
----------------------10-10-10-10-10------------------ 
3-3-3-3-3-7-7-7-7-7-7-10-10-10-10-10-10-10-10\-9-10-10 
3-3-3-3-3-7-7-7-7-7-7-8--8--8--8--8--10-10-10\-9-10-10 
1-1-1-1-1-5-5-5-5-5-5----------------8--8--8-\-7-8--8- 

------------------------------------------------------------
------------------------------------------------------------
----------------------10-10-10-10-10------------------------
3-3-3-3-3-7-7-7-7-7-7-10-10-10-10-10-10-10-10-10-10-9-9-9-7-
3-3-3-3-3-7-7-7-7-7-7-8--8--8--8--8--10-10-10-10-10-9-9-9-7-
1-1-1-1-1-5-5-5-5-5-5----------------8--8--8--8--8--7-7-7-5-

interlude: let them ring 
-------------------- 
-------------------- 
--------5----------- 
7---2---5---7------- 
7---2---3---7------- 
5---0-------5------- 

the last is: 
-------------------- 
-------------------- 
--------5----------- 
7---2---5----------- 
7---2---3----------- 
5---0--------------- 
solo: 
------------------------------------------------------------
------------------------------------------------------------
19b21-------------------------------------------------------
-----19------------------------14-------------------------14
--------12-14-14b16r14-12-14-12----12-14-14b16r14-12-14-12--
------------------------------------------------------------
finish with: 
-------------------- 
-------------------- 
--------5----------- 
7---2---5----------- 
7---2---3----------- 
5---0--------------- 
[ Tab from: http://www.guitartabs.cc/tabs/b/bush/people_that_we_love_tab_ver_6.html ]
Comments