Bush - Mouth Chords & Tabs

 

Mouth Chords & Tabs

Bush Chords & Tabs

Version: 2 Type: Tab 0 ratings
1 star 2 stars 3 stars 4 stars 5 stars
comments

Mouth Tab

   
##################################################################################
# This file is the author's own work and represents their interpretation of the  #
# song. You may only use this file for private study, scholarship, or research.  #
##################################################################################

Date: Wednesday, 19 March
From: David Harrison 
Subject: TAB: "Mouth" by "Bush"
Album: "Razorblade Suitcase"(1996)

This song isn't that hard to play so you shouldn't have 
much trouble playing it. I'm pretty sure I tabbed it right
but if you have any questions, comments, corrections, or 
additions feel free to e-mail me at the address above.

Tab Explaination:

~ - one: hold note
  - two or more: vibrato
/ - slide up the frets
\ - slide down the frets
p - pull off
h - hammer on
b - bend
X - mute
()- Ghost note: a note that is 
there but played very quietly.


E|--------------------|--------------------|--------------------|
B|--------------------|--------------------|--------------------|
G|---1---4\-----------|---1---4---3/4-4430-|---1---4---(3)------|
D|-2--0------4--4-440-|-2--0----4----------|-2--0----4--(4)-----|
A|-2---------X--------|-22------X----------|-2-------X----------|
E|-0----3----2--------|-0----3--2----------|-0----3--2----------|


E|--------------------|--------------------|--------------------|
B|--------------------|--------------------|--------------------|
G|---1---4------------|----1-------3h4-3h4-|(1)-----------------|
D|-2--0----4--4-------|-2-2----------------|--------------------|
A|-2-------X----------|-2------------------|--------------------|
E|-0----3--2----------|-0----3--2----------|--------------------|


E|--------------------|--------------------|--------------------|
B|--------------------|--------------------|--------------------|
G|--(1)---4-----------|---1---4------------|---1---4------------|
D|---(0)----4---------|----0----4----------|-2--0----4----------|
A|----------X---------|---------X----------|-2-------X----------|
E|-------3--2---------|------3--2----------|-0----3--2----------|


E|--------------------|--------------------|--------------------|
B|--------------------|--------------------|--------------------|
G|---1---4------------|--------------------|--------------------|
D|-2--0----4----------|-222-55-4~----------|-222-55-4~----------|
A|-2-------X----------|-222-55-4~----------|-222-55-4~----------|
E|-0----3--2----------|-000-33-2~----------|-000-33-2~----------|
 |                                                              |
 |                                                              |
E|--------------------|--------------------|--------------------|
B|--------------------|-5------------------|--------------------|
G|--------------------|-7b~~~~~~r----------|--------------------|
D|--------------------|--------------------|--------------------|
A|--------------------|--------------------|--------------------|
E|--------------------|--------------------|--------------------|


E|--------------------|--------------------|--------------------|
B|--------------------|--------------------|------5-------------|
G|----1--4p0--(444444)|---1---40-----------|---1--4---(00)3/430-|
D|-2-2-------4--------|----2-----4---------|-2-2----4-----------|
A|-2---------X--------|-22-------X---------|-2------X-----------|
E|-0----3----2--------|-0----3---2---------|-0---3--2-----------|


E|--------------------|--------------------|--------------------|
B|--------------------|--------------------|--------------------|
G|---1---4------------|--------------------|--------------------|
D|-2--0----4----------|-222-55-4~----------|--222-55-4-444444---|
A|-2-------X----------|-222-55-4~----------|--222-55-4-4444440--|
E|-0----3--2----------|-000-33-2~----------|--000-33-2-2222220--|


E|--------------------|--------------------|--------------------|
B|--------------------|--------------------|--------------------|
G|--------------------|--------------------|--------------------|
D|-222XX55-4-44/7-77XX|-222XX55-4----------|-222XX55-4~---------|
A|-222XX55-4-44/7-77XX|-222XX55-4----------|-222XX55-4~---------|
E|-000XX3302-22/5-55XX|-000XX3302----------|-000XX3302~---------|


E|--------------------|--------------------|--------------------|
B|--------------------|--------------------|--------------------|
G|---1---4---(3-33330)|---1---4---3/444430-|---1---4------------|
D|-2--0----4----------|-2--0----4----------|-2--0----4----------|
A|-2-------X----------|-2-------X----------|-2-------X----------|
E|-0----3--2----------|-0----3--2----------|-0----3--2----------|
 |                                                              |
 |                                                              |
E|--------------------|--------------------|---------{666)6h76h7|
B|-5~~(5)~~(5)~~~~~(5)|~~~~~~(5)~~~~~(5)~~~|--------------------|
G|--------------------|--------------------|--------------------|
D|--------------------|--------------------|--------------------|
A|--------------------|--------------------|--------------------|
E|--------------------|--------------------|--------------------|


E|--------------------|--------------------|--------------------|
B|--------------------|--------------------|--------------------|
G|---1---40-----------|---1----------------|---1---4------------|
D|----0-----4---------|-2--0---------------|-2--0----4----------|
A|-22-------X---------|-2------------------|-2-------X----------|
E|-0----3---2---------|-0----3--2----------|-0----3--2----------|
 |                                                              |
 |                                                              |
E|-4~~~~~~~~~~~~~~~~~*|********************|****************----|
B|-------------------*Have volume knob on the guitar turned*----|
G|-------------------*all the way down when you hit it and *----|
D|-------------------*then turn the volume up and back down*----|
A|-------------------*|********************|****************----|
E|--------------------|---------2--~~~~~~~-|--------------------|


E|--------------------|--------------------|--------------------|
B|--------------------|--------------------|--------------------|
G|--------------------|--------------------|--------------------|
D|-222-55-4~----------|--222-55-4-444444---|-222XX55-4-44/7-77XX|
A|-222-55-4~----------|--222-55-4-4444440--|-222XX5504-44/7-77XX|
E|-000-33-2~----------|--000-33-2-2222220--|-000XX3302-22/5-55XX|
 |                                                              |
 |                                                              |
E|--------------------|--------------------|--------------------|
B|--------------------|-----------0000000--|--------------------|
G|--------------------|-----------4444444--|--------------------|
D|--------------------|--------------------|--------------------|
A|--------------------|--------------------|--------------------|
E|--------------------|--------------------|--------------------|


E|--------------------|--------------------|--------------------|
B|--------------------|--------------------|--------------------|
G|--------------------|--------------------|--------------------|
D|-222XX55-4-44/7-77XX|-222XX55-4-44/7-77XX|-222XX55-4----------|
A|-222XX5504-44/7-77XX|-222XX5504-44/7-77XX|-222XX5504----------|
E|-000XX3302-22/5-55XX|-000XX3302-22/5-55XX|-000XX3302----------|

[ Tab from: http://www.guitartabs.cc/tabs/b/bush/mouth_tab_ver_2.html ]
E|--------------------|--------------------|--------------------|
B|--------------------|--------------------|--------------------|
G|--------------------|--------------------|------------2~------|
D|-222XX55-4-44/7-77XX|-222XX55-4-44/7-77XX|-222XX55-4--2~------|
A|-222XX5504-44/7-77XX|-222XX5504-44/7-77XX|-222XX5504--0~------|
E|-000XX3302-22/5-55XX|-000XX3302-22/5-55XX|-000XX3302----------|
 |                                                              |
 |                                                              |
E|--------------------|---------------(1.5)|--------------------|
B|-5\3-5\3-5\3-5\3-5\3|5\3-5\3-5\3-5\3/7b~~|~~r-----------------|
G|--------------------|--------------------|--------------------|
D|--------------------|--------------------|--------------------|
A|--------------------|--------------------|--------------------|
E|--------------------|--------------------|--------------------|


E|--------------------|--------------------|--------------------|
B|--------------------|--------------------|--------------------|
G|--------------------|--------------------|--------------------|
D|-99999999\55555555--|-99999999\55555555--|-99999999\55555555--|
A|-99999999\55555555--|-99999999\55555555--|-99999999\55555555--|
E|-77777777\33333333--|-77777777\33333333--|-77777777\33333333--|
 |                                                              |
 |                                                              |
E|--------------------|--------------------|--------------------|
B|--------------------|--------------------|--------------------|
G|--------3/55/88/1010|/12-----------------|--------------------|
D|--------------------|--------------------|--------------------|
A|--------------------|--------------------|--------------------|
E|--------------------|--------------------|--------------------|

                               { PROGRESSIVE }
E|--------------------|---------9-99-99-99-|9-------------------|
B|--------------------|--------------------|--------------------|
G|--------------------|--------------------|--------------------|
D|-99999999\5~--------|-2~--5~-4~----------|-2~--5~-4~----------|
A|-99999999\5~--------|-2~--5~-4~----------|-2~--5~-4~----------|
E|-77777777\3~--------|-0~--3~-2~----------|-0~--3~-2~----------|


E|--------------------|--------------------|--------------------|
B|--------------------|--------------------|--------------------|
G|--------------------|--------------------|--------------------|
D|-2~--5~-4~----------|-2~--5~-4~----------|-222-55-4~----------|
A|-2~--5~-4~----------|-2~--5~-4~----------|-222-55-4~----------|
E|-0~--3~-2~----------|-0~--3~-2~----------|-000-33-2~----------|


E|--------------------|--------------------|--------------------|
B|--------------------|--------------------|--------------------|
G|--------------------|--------------------|--------------------|
D|--222-55-4-444444---|-222XX55-4-44/7-77XX|-222XX55-4-44/7-77XX|
A|--222-55-4-4444440--|-222XX5504-44/7-77XX|-222XX55-4-44/7-77XX|
E|--000-33-2-2222220--|-000XX3302-22/5-55XX|-000XX3302-22/5-55XX|
 |                                                              |
 |                                                              |
E|-12-----------------|--------------------|--------------------|
B|-15b~~~~~~r---------|--------------------|--------------------|
G|------------X3333333|4-------------------|--------------------|
D|--------------------|--------------------|--------------------|
A|--------------------|--------------------|--------------------|
E|--------------------|--------------------|--------------------|


E|--------------------|--------------------|--------------------|
B|--------------------|--------------------|{    REPEAT 9X     }|
G|--------------------|--------------------|--------------------|
D|-222XX55-4-44/7-77XX|-222XX55-4----------|-222XX55-4-44/7-77XX|
A|-222XX5504-44/7-77XX|-222XX5504----------|-222XX5504-44/7-77XX|
E|-000XX3302-22/5-55XX|-000XX3302----------|-000XX3302-22/5-55XX|


E|------------------------||
B|------------------------|| ***********************************
G|------------------------|| *If anyone feels like tabbing that*
D|-222XX55X4~-------------|| *piece of crap solo go ahead and  *
A|-222XX55X4~-------------|| *e-mail it to me.                 *
E|-000XX33X2~-------------|| ***********************************
 |                        ||
 |                        ||
E|---------12-------------||
B|---------15b~~/17b~~~r--||
G|------------------------||
D|------------------------||
A|------------------------||
E|------------------------||



****************************************

****************************************



Date: Sat, 11 Jan 1997 14:23:11 -0800
From: Marc Zeitlin 


>Artist: BUSH
>Song: MOUTH (off of Razorblade Suitcase)
>Tabbed out by Jonathan Zeitlin (marcz@netcom.com)

This song is pretty awesome.  It is one of the better songs on 
Razorblade Suitcase.  It has a pretty mellow sound.  The amp should be 
set without any bass and a high pitch tone.  

The verses are mostly picking off note.  There are a few patterns that 
they play.  If you listen to the song you can hear where they are and 
can figure out where to put them.

There are 5 chords that are pulled from barre chords.  I don't know 
their names so I'll just call them BAR1, 2, 3, 4, and5.

                       BAR1   BAR2  BAR3  BAR4  BAR5
                    e|---X-----X-----X-----X-----X---
BAR1:  133XXX       b|---X-----X-----X-----X-----X---
BAR2:  355XXX       g|---X-----X-----X-----X-----X---
BAR3:  466XXX       d|---3-----5-----6-----8-----10--
BAR4:  688XXX       a|---3-----5-----6-----8-----10--
BAR5:  8 10 10XXX   e|---1-----3-----4-----6-----8---

SIGNS
  s=slide to
  b=bend
  ^=slide up until...

The Intro is the same as the verses.

INTRO/VERSES:

     BAR1
e|----X-----------------------------------------------
b|----X-----------------------------------------------
g|----X----5s-4---4---5s-4s-2-------------------------
d|----3-----------------------------------------------
a|----3-----------------------------------------------
e|----1-----------------------------------------------

This repeats throughout the verses.  After or instead of the fingerings 
following the barre chord are these little finger dittys that pop up 
everywhere in the song.

Finger Ditty #1:
e|------------------------------
b|------------------------------
g|---5--5--5--5b-s6--5s-6--2----
d|------------------------------
a|------------------------------
e|------------------------------

Finger Ditty #2:
e|---7--7--7--7b-s8--7s-8--5----
b|------------------------------
g|------------------------------
d|------------------------------
a|------------------------------
e|------------------------------

CHORUS #1:

   BAR1        BAR3        BAR2
e|---x-----x-----x-----x-----x------------------------
b|---x-----x-----x-----x-----x------------------------
g|---x-----x-----x-----x-----x------------------------
d|---3-----3-----6-----6-----5------------------------
a|---3-----3-----6-----6-----5------------------------
e|---1-----1-----4-----4-----3------------------------

Let this ring and throw in the first finger ditty with your middle 
finger and your pinky.  The play the verse.  In the verse he throws in 
the second finger ditty.  Then come the second chorus.  This is the 
model for the rest of the chorusus.

CHORUS #2:

   BAR1        BAR3        BAR2  BAR4   
e|---x-----x-----x-----x-----x-----x-----x------------
b|---x-----x-----x-----x-----x-----x-----x------------
g|---x-----x-----x-----x-----x-----x-----x------------
d|---3-----3-----6-----6-----5-----8-----8------------
a|---3-----3-----6-----6-----5-----8-----8------------
e|---1-----1-----4-----4-----3-----6-----6------------

Then the bridge, which is also the solo (Gavin used this trick of 
comining them in "Glycerine" as well), goes like this.

BRIDGE/SOLO:

   BAR5              BAR3
e|---x-----x-----x-----x-----x------------------------
b|---x-----x-----x-----x-----x------------------------
g|---x-----x-----x-----x-----x-----4~~~5~~~~~7~~~~8---
d|---10----10----10----6-----6------------------------
a|---10----10----10----6-----6------------------------
e|---8-----8-----8-----4-----4------------------------

Then just repeat the chorus and that's it.  Please e-mail me at 
marcz@netcom.com if you are reading this so that I can know how many 
people have read or used this tab.  Questions, Comments, and 
Corrections welcome.  Below are the lyrics.
Comments