Bush - Machinehead Chords & Tabs

 

Machinehead Chords & Tabs

Bush Chords & Tabs

Version: 5 Type: Tab 0 ratings
1 star 2 stars 3 stars 4 stars 5 stars
comments

Machinehead Tab

Guitar 1,Intro--Ten Times.
E |-------------------------------------------|
B |-------------------------------------------|
G |---6--6--8--8--8--9--9--11-11--------------|
D |---X--X--X--X--X--X--X--X--X---------------|
A |---4--4--6--6--6--7--7--9--9---------------|
E |-------------------------------------------|
After the second time through, guitar two:
Play and Hold each for two of those^^ Repeat each once.
E |----------------------------------|
B |----------------------------------|
G |----6-----2-----------------------|
D |----6-----2-----------------------|
A |----4-----0-----------------------|
E |----------------------------------|
Guitar two: Play all twice.
E |------------------------------------------------------------------------|
B |------------------------------------------------------------------------|
G |--6--6--x--X--x--6--6--6--X--x--X--6--6--6--x--X--x--6--6--6--X--x--X-x-|
D |--6--6--x--X--x--6--6--6--X--x--X--6--6--6--x--X--x--6--6--6--X--x--X-x-|
A |--4--4--x--X--x--4--4--4--X--x--X--4--4--4--x--X--x--4--4--4--X--x--X-x-|
E |------------------------------------------------------------------------|
[ Tab from: http://www.guitartabs.cc/tabs/b/bush/machinehead_tab_ver_5.html ]
E |------------------------------------------------------------------------|
B |------------------------------------------------------------------------|
G |--2--2--x--X--x--2--2--2--X--x--X--2--2--2--x--X--x--2--2--2--X--x--X-x-|
D |--2--2--x--X--x--2--2--2--X--x--X--2--2--2--x--X--x--2--2--2--X--x--X-x-|
A |--0--0--x--X--x--0--0--0--X--x--X--0--0--0--x--X--x--0--0--0--X--x--X-x-|
E |------------------------------------------------------------------------|
Guitar 1-Play between repeats^^ Play three times.
E |-------------------------------------------|
B |-------------------------------------------|
G |---6--6--8--8--8--9--9--11-11--------------|
D |---X--X--X--X--X--X--X--X--X---------------|
A |---4--4--6--6--6--7--7--9--9---------------|
E |-------------------------------------------|
Guitar two: After second time play:
E |----9999--7777--9999--7777--9999--7777--9999--7777------------|
B |----9999--7777--9999--7777--9999--7777--9999--7777------------|
G |--------------------------------------------------------------|
D |--------------------------------------------------------------|
A |--------------------------------------------------------------|
E |--------------------------------------------------------------|
Then both rest for bass and singing:)
Then Guitar 2: "Breathe in, Breathe Out"(Pre-Chorus)
E |--------------------------------------|
B |--------------------------------------|
G |----6/2-----6---6/2-------------------|
D |----6/2-----6---6-2-------------------|
A |----4/0-----4---4-0-------------------|
E |--------------------------------------|
Still Guitar 2...Play three times.
E |------------------------------------------------------------------------|
B |------------------------------------------------------------------------|
G |--6--6--x--X--x--6--6--6--X--x--X--6--6--6--x--X--x--6--6--6--X--x--X-x-|
D |--6--6--x--X--x--6--6--6--X--x--X--6--6--6--x--X--x--6--6--6--X--x--X-x-|
A |--4--4--x--X--x--4--4--4--X--x--X--4--4--4--x--X--x--4--4--4--X--x--X-x-|
E |------------------------------------------------------------------------|

E |------------------------------------------------------------------------|
B |------------------------------------------------------------------------|
G |--2--2--x--X--x--2--2--2--X--x--X--2--2--2--x--X--x--2--2--2--X--x--X-x-|
D |--2--2--x--X--x--2--2--2--X--x--X--2--2--2--x--X--x--2--2--2--X--x--X-x-|
A |--0--0--x--X--x--0--0--0--X--x--X--0--0--0--x--X--x--0--0--0--X--x--X-x-|
E |------------------------------------------------------------------------|
Guitar 1--Play after two times^^(Play three times)
E |-------------------------------------------|
B |-------------------------------------------|
G |---6--6--8--8--8--9--9--11-11--------------|
D |---X--X--X--X--X--X--X--X--X---------------|
A |---4--4--6--6--6--7--7--9--9---------------|
E |-------------------------------------------|
Chorus: "Go Machine head, better than the rest"
Lots of resting, and bass playing.. then
E |--------0---------0---------0---------0--------|
B |----4h5---5---4h5---5---4h5---5---4h5--5~------|
G |-----------------------------------------------|
D |-----------------------------------------------|
A |-----------------------------------------------|
E |-----------------------------------------------|
One thing that sounds pretty good during those resting and before the uhh..'tab'
part, I suppose...is if you play this, but it's not in the song..
E |-------7-7--9--9----5-----------------------------------|
B |---9---7-7--9--9----5-----------------------------------|
G |---9---8-8--9--9----6-----------------------------------|
D |---9---9-9--11-11---7-----------------------------------|
A |---7---9-9--11-11---7-----------------------------------|
E |-------7-7--9--9----5-----------------------------------|

That's about it..Besides the other 'heavy' chorus part. It goes..
E |---------------------------------------------------|
B |---------------------------------------------------|
G |---9-----------------------------------------------|
D |---9----9----11----7-------------------------------|
A |---7----9----11----7-------------------------------|
E |--------7----9-----5-------------------------------|
(Figure out the strumming for yourself:P)
Also...There's a part where he says "I walk with my machine..." (It's after the chorus)
E |------------------------------------------------------------------|
B |------------------------------------------------------------------|
G |------------------------------------------------------------------|
D |------------------------------------------------------------------|
A |---4--4--4--4--4--4--4--4-x-7--7--7--7--7--7--7--7----------------|
E |---2--2--2--2--2--2--2--2-x-5--5--5--5--5--5--5--5----------------|

Anyway! This is my VERY first tab, ever. I've used everyone elses, and I'm really
thankful. I figured I'd help out too:P I'll start doing lots now, if you have any
requests or whatever, email me!:) Caughtmeonehanded@hotmail.com
-Sam:)
Comments