Bush - Machinehead Chords & Tabs

 

Machinehead Chords & Tabs

Bush Chords & Tabs

Version: 4 Type: Bass Tab 0 ratings
1 star 2 stars 3 stars 4 stars 5 stars
comments

Machinehead Bass Tab

    From: go11y@hotmail.com (Tyler Golly)
    To: bass@olga.net
    Subject: MachineHead by Bush on the CD Sixteen stone
    Date: Thu, 16 Jan
[ Tab from: http://www.guitartabs.cc/tabs/b/bush/machinehead_btab_ver_4.html ]
    
    Well here is one great song by another great band with great lyrics and lead
    guitar.  I think these guys are really great even though they are Brittish
    cause they sound North American.  Here is MachineHead, at least the main parts.
    At the begginning wait two measures(two times of what the guitar is playing and
    then play and open E string and let it ring for two more measures then play
    this six times I believe.
    --------------------------------------
    --------------------------------------
    4-4-6-6-6-7-7-7-9-9-------------------
    --------------------------------------
    
    Then play this a few times I can't remember how many(sorry)
    --------------------------------------
    --------------------------------------
    --------------------------------------
    8-8-8-8-8-8-8-8/4-4-4-4-4-4-4-4-------
    
    Another part of the song is this
    --------------------
    2-------2-----------
    --2-4-0---2-4-0-----
    --------------------
    
    Finally another part of the song is almost the same as the last part I typed
    but it isn't half notes or doted quarters.
    
    -------------------------
    2-2----------------------
    ----2-2-2-2-4-4-0-0-0-0--
    -------------------------
    
    That's about it find out where and how many times to play these and you'll be
    kicking some ass.
    
    ---------------------------------------------------------
    Get Your *Web-Based* Free Email at http://www.hotmail.com
    ---------------------------------------------------------
    
    

--
-=-=-=-=-=-=-=-=-=-=-=-=-=-=-=-=-
David Miller
dwm3@po.cwru.edu
Dept. of Computer Engineering
Comments