Bush - Machinehead Chords & Tabs

 

Machinehead Chords & Tabs

Bush Chords & Tabs

Version: 1 Type: Bass Tab 0 ratings
1 star 2 stars 3 stars 4 stars 5 stars
comments

Machinehead Bass Tab

Band:      Bush
Song:      Machinehead
Tabbed By: drifft
email:     drifft@home.com
This is a corrected tab.


Intro:
G:|----|----|------------------------|
D:|----|----|------------------------|
A:|----|-4--|-4\0-0--0-00--0-0--0-00-|
E:|----|----|------------------------|

Main Riff:
G:|--------------------------------------------|
D:|--------------------------------------------|
A:|-4-4--4-44--4-4--4-44--0-0--0-00--0-0--0-00-|
E:|--------------------------------------------|

Chorus Variation 1:
G:|------------|
D:|------------|
A:|-/7--2-4--0-|
E:|------------|

Chorus Variation 1 End:
G:|------------|------------------|
D:|------------|------------------|
A:|-/7--2-4----|------------------|
E:|------------|-2-2--5--5\2-2--5-|

Chorus Variation 2:
G:|-----------------------|
D:|-----------------------|
A:|-/7-7--2-22--4-4--0-00-|
E:|-----------------------|
[ Tab from: http://www.guitartabs.cc/tabs/b/bush/machinehead_btab.html ]
Chorus Variation 2 End:
G:|-----------------|------------------|
D:|-----------------|------------------|
A:|-/7-7--2-22--4---|------------------|
E:|-----------------|-2-2--5--5\2-2--5-|

Interlude:
G:|--------------------------------------------|
D:|--------------------------------------------|
A:|-----------------------0-0--0-00--0-0--0-00-|
E:|-1-1--1-11--1-1--1-11-----------------------|

Outro:
G:|------------------|
D:|------------------|
A:|-/7-7--2-22--4--4-| let last note ring
E:|------------------|

Song Breakdown:
Intro:                  1x
Main Riff:              8x
Chorus Variation 1:     3x
Chorus Variation 1 End: 1x
Main Riff:              4x
Chorus Variation 2:     3x
Chorus Variation 2 End: 1x
Interlude:              2x
Main Riff:              1x
Chorus Variation 2:     7x
Outro:                  1x

Listen to the song for the timing and have fun!
Any questions or comments please email me at drifft@home.com!

Comments