Bush - Little Things Chords & Tabs

 

Little Things Chords & Tabs

Bush Chords & Tabs

Version: 1 Type: Tab 0 ratings
1 star 2 stars 3 stars 4 stars 5 stars
comments

Little Things Tab

#-----------------------------------------------------------------------------#
#-- File created with Instab - http://www.pconline.com/~smcarey/instab.html --#
#-----------------------------------------------------------------------------#

Author/Artist: Bush
Title: Little Things
Album: Sixteen Stone
Transcribed by: Crank Raven
Email: starsucker_inc@gmx.de

These are the riffs from Bush's "Little Things"
The guitars are tuned regularly
I'm sorry, I can't give you the soli.
Please send it me, if you have it.
[ Tab from: http://www.guitartabs.cc/tabs/b/bush/little_things_tab.html ]
------------------------------------------------------------------------------
------------------------------------------------------------------------------
-----------------5-5-5-5-7-7-7-7----------------------------------------------
-7-7-7-7-3-3-3-3-5-5-5-5-7-7-7-7----------------------------------------------
-7-7-7-7-3-3-3-3-3-3-3-3-5-5-5-5----------------------------------------------
-5-5-5-5-1-1-1-1--------------------------------------------------------------
 intro + chorus                                                               

---------------------------------|--------------------------------------------
---------------------------------|--------------------------------------------
---------------------5-------7---|--------------------------------------------
-----7-------3-----5---5---7---7-|-7------------------------------------------
---7---7---3---3-3-------5-------|-7------------------------------------------
-5-------1-----------------------|-5------------------------------------------
 bridge                           end-tone                                    

Comments