Bush - Letting The Cables Sleep Chords & Tabs

 

Letting The Cables Sleep Chords & Tabs

Bush Chords & Tabs

Version: 1 Type: Tab 0 ratings
1 star 2 stars 3 stars 4 stars 5 stars
comments

Letting The Cables Sleep Tab

   
##################################################################################
# This file is the author's own work and represents their interpretation of the  #
# song. You may only use this file for private study, scholarship, or research.  #
##################################################################################

Bush 
Letting the Cables Sleep
The Science of Things

I tried to get the chords positioned so that they would be relative to
the words in the song. I hope that it’s not too confusing. 
Any comments, questions, or additions are welcomed and greatly 
appreciated at my email address; spectre853@yahoo.com

For this song, all you need is an E-based bar chord. Just slide up and
down and strum. Just three chords. It really is that easy.

F#- G#-A#m-
246
246
356
468
468
246

For the intro, play the entire chord, then play the singular notes.
F#G#A#mx2
-------------------------------------
---2----------4----------------------
-3---3-3----5---5-5-----------------6
---------4----------6--8----------8--
--------------------------8-8-8-8----
-------------------------------------

F#G#A#m   x2
----------------------
---2----2-----4-------
-3---3---3--5---5-5---
--------------------6-
----------------------
----------------------

========================================================= 
=========================================================
[ Tab from: http://www.guitartabs.cc/tabs/b/bush/letting_the_cables_sleep_tab.html ]
Artist: Bush  
Song: Letting The Cables Sleep Album The Science Of Things
Tabbed by: John Leadman
                 

       CHORDS:
   
         
   F#  (2443xx)
   G#  (4665xx)
   A#5 (688xxx)
   C#5 (x466xx)
   F5  (133xxx)
   
   
   Since this is mostly played on piano I just used the chord positions
   that sounded best to me. 
   
   
   INTRO:
   
       F#        G#        A#
   E|-------------------------------------------------|
   B|-----2---------4---------------------------------|
   G|--3----3----5----5--------------------------7----|
   D|--4-------4-6-------6-8----8-----8--------8---8--|
   A|--4---------6---------8--------8----8-8-8--------|
   E|--2---------4---------6--------------------------|
           |
                       
               
   
   
   CHORDS:
   
         
   F#  (2443xx)
   G#  (4665xx)
   A#5 (688xxx)
   C#5 (x466xx)
   F5  (133xxx)
   
   
   Since this is mostly played on piano I just used the chord positions
   that sounded best to me. 
   
   
   INTRO:
   
       F#        G#        A#
   E|-------------------------------------------------|
   B|-----2---------4---------------------------------|
   G|--3----3----5----5--------------------------7----|
   D|--4-------4-6-------6-8----8-----8--------8---8--|
   A|--4---------6---------8--------8----8-8-8--------|
   E|--2---------4---------6--------------------------|
           |
(rest)                 (rest)    




       
Comments