Bush - Jesus Online Chords & Tabs

 

Jesus Online Chords & Tabs

Bush Chords & Tabs

Version: 1 Type: Tab 0 ratings
1 star 2 stars 3 stars 4 stars 5 stars
comments

Jesus Online Tab

Person: Joe

song: Jesus Online

artist: Bush

tab:  (1)  (harmonics through-out verse)
E---------------------|
B---------------------|
G---------------------|
D--(12)w/vol. swells--|
A---------------------|
E---------------------|

 (2)(bridge)
E-----------------------------------|
B-----------------------------------|
G-----------------------------------|
D-----------------------------------|
A--5--5-5-5/13-13-13--13-13-13-13---|
E--3--3-3-3/11-11-11--11-11-11-11---|

 (3) (w/distortion)(pre-chorus)
E-------------------|
B-------------------|
G-------------------|
D--5--5-5-5/8-8-8\--|
A--5--5-5-5/8-8-8\--|
E--3--3-3-3/6-6-6\--|

 (4) (chorus)
E---------------------------|
B---------------------------|
G-----------8-8-8--8-8-8-8--|
D--5--5-5-5/8-8-8--8-8-8-8--|
A--5--5-5-5/6-6-6--6-6-6-6--|
E--3--3-3-3/6-6-6--6-6-6-6--|

 (5)
E----------------------------------------------|
B----------------------------------------------|
G--7-7-7-7--9-9-9-9--10-10-10-10--12-12-12-12--|
D--7-7-7-7--9-9-9-9--10-10-10-10--12-12-12-12--|
A--5-5-5-5--7-7-7-7--8--8--8--8---10-10-10-10--|
E----------------------------------------------|
[ Tab from: http://www.guitartabs.cc/tabs/b/bush/jesus_online_tab.html ]
Intro-(1)
1st Verse-(1)
Bridge(2)4x's
Pre-Chorus-(3)
2nd Verse-(1)
Bridge-(2)4x's
Pre-chorus-(3)2x's
Chorus-(4)8x's
After Chorus-(5)2x's
3rd Verse-(2)4x's
Chorus-(4)4x's
After Chorus-(5)

Lyrics:
(Verse 1)
Whatever she wants from me.
Whatever device.
Whether in kindness.
Whether in spite.

(Bridge)
What can I say?
What can I do?
I can't help myself.
I let the monster through.

(Verse 2)
Wherever she sends me.
Wherever the plain.
Perfect black dress.
Perfect grave.

(Bridge)
What can I say?
What can I do?
I did it to myself.
I did it all confused.

(Chorus)
Jesus online. 
Wires around the world.
Feel invincible.
Computer car and girl.
Jesus online.
Wires around the world.
Feel invincible.
To be perfect just like you.

(3rd Verse)
Whenever she comes with me.
Whenever we break.
Dress up my apathy.
Pretend we're great great great.

(Chorus)
Jesus online.
Wires around the world.
Feel invincible.
Computer carbon girl.
Jesus online.
Jesus online.
JESUS!
JESUS!
JESUS!

Jesus online.
Arms around the world.
Feel invincible.
To be perfect just like you. 
To be perfect just like you.
JESUS!
Jesus online.
JESUS!
To be perfect just like you.
To be perfect just like you.
To be perfect just like you.
To be perfect just like you.
Arms around the world.
(Perfect just like you)
Comments