Bush - Inflatable Chords & Tabs

 

Inflatable Chords & Tabs

Bush Chords & Tabs

Version: 6 Type: Tab 0 ratings
1 star 2 stars 3 stars 4 stars 5 stars
comments

Inflatable Tab

   
Band: Bush
Song: Inflatable
Tuning: EADGBE


VERSE: "Let it slide..."
 play these chords.. the strumming is easy to figure out
   
   D    F#   A    G
E--2----2----0--------
B--3----2----2----3---
G--2----3----2----0---
D--0----4----2----0---
A-------4----0----2---
E-----------------3--- 

CHORUS: "You're so pretty in white..."
It's just these two chords throughout the chorus
   
   Em  C                                         Am    
E----------                                   E--0----------
B--0---1---                                   B--1----------
G--0---0--- then at the end, just strum these G--2----------
D--2---2--- once and let them ring out...     D--2-----3----
A--2---3---                                   A--0-----3----
E--0-------                                   E--------1----

Then go back to the verse, but play this...

E-----5-------5--------5--------5---2---5---2---5-----
B---------7-------7-----------------------------------
G-----------------------------------------------------
D---0---0---0---0---0---------------------------------
A-----------------------------------------------------
E-----------------------------2---2---2---2---2-------
[ Tab from: http://www.guitartabs.cc/tabs/b/bush/inflatable_tab_ver_6.html ]
E-----5-------5-------5------5---2---5---2---5--------
B---------7-------7-----------------------------------
G-----------------------------------------------------
D---0---0---0---0---0---------------------------------
A-----------------------------------------------------
E--------------------------2---2---2---2---2----------

E-----5-------5-------5--------3-------3-------3------
B---------5-------5----------------3-------3----------
G-----------------------------------------------------
D-----------------------------------------------------
A---0---0---0---0---0---------------------------------
E----------------------------3---3---3---3---3--------

 Then go back to those four chords for the last measure 
  "It's like we've come undone..."

  D    F#   A    G
E--2----2----0--------
B--3----2----2----3---
G--2----3----2----0---
D--0----4----2----0---
A-------4----0----2---
E-----------------3--- 

Chorus

This time, at the end of the chorus, play these three chords
(let them ring out once) before going into the solo..

E--0---------0----             E-----------------------------
B--1---------0----             B-----------------------------
G--2---------0----    SOLO...  G-----------------------------
D--2----3----2----             D----7--7-7-7-----------------
A--0----3----2----             A---------------10h9h10-9-9---
E-------1----0----             E-----------------------------

-------------------------------------------------------------
-------------------------------------------------------------
-------------------------------------------------------------
---------7---9s12-12-12h11-11-11h12--------------------------
----9-10------------------------------7-----^9---------------
----------------------------------------10-------------------

VERSE ("I don't mind... Most of the time...")



CHORUS


Antwan
Comments