Bush - Inflatable Chords & Tabs

 

Inflatable Chords & Tabs

Bush Chords & Tabs

Version: 4 Type: Tab 0 ratings
1 star 2 stars 3 stars 4 stars 5 stars
comments

Inflatable Tab

   
Bush "Inflatable"
This is a great song that's easy to play and it's my favorite from the Golden State album.
Tuning (E A D G B E)

By:  Drewan

Verse (guitar 1 plays the chords)

e|-----------------------------------------------|
B|-----------2-----5-----3-----------------------|
G|-----7-----3-----6-----4-----------------------|
D|-----7-----4-----7-----5-----------------------|
A|-----5-----4-----7-----5-----------------------|
E|-----------2-----5-----3-----------------------|

Verse (guitar 2 finger picks)

e|-----------------------------------------------|
B|----10--------10--------10---------------------|
G|---------11--------11------11------------------|
D|--0----0----0----0----0------------------------|
A|-----------------------------------------------|
E|-----------------------------------------------|

e|-----------------------------------------------|
B|----10--------10--------10---------------------|
G|---------11--------11------11------------------|
D|-----------------------------------------------|
A|--9----9----9----9----9------------------------|
E|-----------------------------------------------|
[ Tab from: http://www.guitartabs.cc/tabs/b/bush/inflatable_tab_ver_4.html ]
e|-----------------------------------------------|
B|----10--------10--------10---------------------|
G|---------9---------9-------9-------------------|
D|-----------------------------------------------|
A|--0----0----0----0----0------------------------|
E|-----------------------------------------------|

e|-----------------------------------------------|
B|-----------------------------------------------|
G|-----9----------9----------9-------------------|
D|----------12---------12------12----------------|
A|--10---10----10---10----10---------------------|
E|-----------------------------------------------|

Chorus (guitars 1 and 2 play chords)

e|-----0-----0-----0-----0-----0-----1-----------|
B|-----0-----1-----0-----1-----0-----1-----------|
G|-----0-----0-----0-----0-----0-----2-----------|
D|-----2-----2-----2-----2-----2-----3-----------|
A|-----2-----3-----2-----3-----2-----3-----------|
E|-----0-----0-----0-----0-----0-----1-----------|

Solo (guitar 1 picks)

e|---------------------------------------------------------|
B|---------------------------------------------------------|
G|-7~-777-5-4-5-4------------------------------------------|
D|----------------5-4~-4-5-7~-7/12-12-12-11-9-9/11~--------|
A|--------------------------------------------------7~-9b--|
E|---------------------------------------------------------|
Comments