Bush - Inflatable Chords & Tabs

 

Inflatable Chords & Tabs

Bush Chords & Tabs

Version: 3 Type: Tab 0 ratings
1 star 2 stars 3 stars 4 stars 5 stars
comments

Inflatable Tab

   
##################################################################################
# This file is the author's own work and represents their interpretation of the  #
# song. You may only use this file for private study, scholarship, or research.  #
##################################################################################

Bush - Inflatable
Albom - Golden State 
Tabbed By -  Esty Per'e         (estusha@walla.co.il / esty_pere@hotmail.com)


Verse:
e--------------------------------------------------------------------------------------------------------------
B--------------------------------------------------------------------------------------------------------------
G-----2----2--------2---------2------2-------2---------2---4---2---4------2---4--------2-------2--------2------
D-------4-----4-------4----------4-----4--------4-----------------------------------------2-------2--------2---
A--5-------------5---------4---------------4--------2------------------2------------2----------------2---------
E--------------------------------------------------------------------------------------------------------------
starts in: "....But as love that's really love can never fail.........One my only friend" 

Chorus:

Bm                      C                             Bm
You're so pretty in white pretty when you're faithful  
Bm                         C            Am  
So pretty in white pretty when you're faithful, when you faithful  
[ Tab from: http://www.guitartabs.cc/tabs/b/bush/inflatable_tab_ver_3.html ]
Solo: 
               slide
e-------------------------------------------------------------------------------------------
B-------------------------------------------------------------------------------------------
G-----------------------------------------------7--7--7--6--6-6s7---------------------------
D---7----7--7--7--5--7--5---4--4----4--5--7--------------------------2--------4---5---------
A-------------------------------------------------------------------------------------------
E-------------------------------------------------------------------------------------------

==================
Bush - inflatable
==================

Hi, these are my first experiences in writing tabs, so I hope you´ll understand it.
This music can be played in two ways:

1st - if you want to sing while playing, it will sound better by playing the
chords I´ll be writing. That means, not playing "exactly" as Gavin, as he doesn't play
chords but mostly notes, as you might have already noticed.

2nd - if you want to play as he actually does.

So, here it goes (if you have any doubts, or for some reason don't agree,
write to sergio_news@hotmail.com).
I hope I'm not mistaken about the name of the chords (until very recently, 
I never had guitar lessons, I have learned by myself for some years.


the solo:

E-----------------------------------------------------------------------
B-----------------------------------------------------------------------
G-----------------------------------------------------------------------
D---7-7-7-7-5-4-5-4-4-4-5-7-12-12-12-11-11-12---------------------------
A---------------------------------------------7-5-9-10------------------
E-----------------------------------------------------------------------


         D                F#m
I don't mind most of the time
........A.................G

Chorus again (I think you'll already haveit memorised by now :) )


2nd Way:

just like the first, but when this part (after one time D;F#m;A;G) comes play:

E--5--5--5---5--5--5---5-5-5---3-3----------------------------------
B---7--7------7--7------5-5-----3-3---------------------------------
G-------------------------------------------------------------------
D-------------------------------------------------------------------
A-------------------------------------------------------------------
E-------------------------------------------------------------------
HAVE FUN!!!
Comments