Bush - Inflatable Chords & Tabs

 

Inflatable Chords & Tabs

Bush Chords & Tabs

Version: 2 Type: Tab 0 ratings
1 star 2 stars 3 stars 4 stars 5 stars
comments

Inflatable Tab

   
    ARTIST:BUSH
SONG TITLE:Inflateble
     ALBUM:Golden State
 TABBED BY:Jonathon Worms

	This is my first tab, I tried to get it as correct as I could. I tabbed 
it lower on the neck of the guitar for the propose of matching tone quality that 
and it looks a little harder so you can impress your friends



Time: 4/4   
Tempo: 59-63

                                                                                                                                     
e||-------------------------------|--------------------------------|--------------------------------|--------------------------------|
B||-------------------------------|--------------------------------|--------------------------------|--------------------------------|
G||-------------------------------|--------------------------------|--------------------------------|--------------------------------|
D||-------------------------------|--------------------------------|--------------------------------|--------------------------------|
A||-------------------------------|--------------------------------|--------------------------------|--------------------------------|
E||-------------------------------|--------------------------------|--------------------------------|--------------------------------|



e|--------------------------------|------5--------5----------5-----|------5--------5----------5-----|------5--------5----------5-----|
B|--------------------------------|*----------7-------7---------7--|-----------7-------7---------7--|-----------5-------5---------5--|
G|--------------------------------|--------------------------------|--------------------------------|--------------------------------|
D|--------------------------------|-0-------0---0---0------0-------|-4-------4---4---4------4-------|-0-------0---0---0------0-------|
A|--------------------------------|*-------------------------------|--------------------------------|--------------------------------|
E|--------------------------------|--------------------------------|--------------------------------|--------------------------------|

   _______________________________  _______________________________ [Chorus]
  |1.                              |2.                              {Em}                             {C}
e|------3--------3----------3-----|------7--------7----------7-----|0-------------------------------|0-------------------------------|
B|-----------3-------3---------3-*|-----------8-------8---------8--|0-------------------------------|1-------------------------------|
G|-0-------0---0---0------0-------|-0-------0---0---0------0-------|0-------------------------------|0-------------------------------|
D|--------------------------------|--------------------------------|2-------------------------------|2-------------------------------|
A|-------------------------------*|--------------------------------|2-------------------------------|3-------------------------------|
E|--------------------------------|--------------------------------|0-------------------------------|--------------------------------|


 {Em}                             {C}                              {Am}                             {F}
e|0-------------------------------|0-------------------------------|--------------------------------|1-------------------------------|
B|0-------------------------------|1-------------------------------|0h1-----------------------------|1-------------------------------|
G|0-------------------------------|0-------------------------------|2-------------------------------|2-------------------------------|
D|2-------------------------------|2-------------------------------|2-------------------------------|3-------------------------------|
A|2-------------------------------|3-------------------------------|0-------------------------------|0-------------------------------|
E|0-------------------------------|--------------------------------|--------------------------------|--------------------------------|



e|------5--------5----------5-----|------5--------5----------------|------5--------5----------5-----|------5--------5----------5-----|
B|-----------7-------7---------7--|-----------7--------------------|*----------7-------7---------7--|-----------7-------7---------7--|
G|--------------------------------|--------------------------------|--------------------------------|--------------------------------|
D|-0-------0---0---0------0-------|-4-------4---4------------------|-0-------0---0---0------0-------|-4-------4---4---4------4-------|
A|--------------------------------|--------------------------------|*-------------------------------|--------------------------------|
E|--------------------------------|--------------------------------|--------------------------------|--------------------------------|
[ Tab from: http://www.guitartabs.cc/tabs/b/bush/inflatable_tab_ver_2.html ]
                                                                                                    [Chorus]
                                    _______________________________  _______________________________(%)
                                   |1.                              |2.                             {Em}
e|------5--------5----------5-----|------3--------3----------3-----|------7--------7----------7-----|0-------------------------------|
B|-----------5-------5---------5--|-----------3-------3---------3-*|-----------8-------8---------8--|0-------------------------------|
G|--------------------------------|-0-------0---0---0------0-------|-0-------0---0---0------0-------|0-------------------------------|
D|-0-------0---0---0------0-------|--------------------------------|--------------------------------|2-------------------------------|
A|--------------------------------|-------------------------------*|--------------------------------|2-------------------------------|
E|--------------------------------|--------------------------------|--------------------------------|0-------------------------------|


 {C}                              {Em}                             {C}                              {Em}
e|0-------------------------------|0-------------------------------|0-------------------------------|0-------------------------------|
B|1-------------------------------|0-------------------------------|1-------------------------------|0-------------------------------|
G|0-------------------------------|0-------------------------------|0-------------------------------|0-------------------------------|
D|2-------------------------------|2-------------------------------|2-------------------------------|2-------------------------------|
A|3-------------------------------|2-------------------------------|3-------------------------------|2-------------------------------|
E|--------------------------------|0-------------------------------|--------------------------------|0-------------------------------|

                                  Go to (*) 2nd Only
 {C}                              {Am}                             {F}                              {Em}
e|0-------------------------------|--------------------------------|1-------------------------------|0-------------------------------|
B|1-------------------------------|0h1-----------------------------|1-------------------------------|-0------------------------------|
G|0-------------------------------|2-------------------------------|2-------------------------------|--0-----------------------------|
D|2-------------------------------|2-------------------------------|3-------------------------------|---2----------------------------|
A|3-------------------------------|0-------------------------------|0-------------------------------|----2---------------------------|
E|--------------------------------|--------------------------------|--------------------------------|-----0--------------------------|

                                                                                                     BEND ^1/2
e|--------------------------------|--------------------------------|--------------------------------|--------------------------------|
B|--------------------------------|--------------------------------|--------------------------------|--------------------------------|
G|--------------------------------|-------------------------7-----7|7-6-4---4/7---------------------|--------------------------------|
D|-7------7---7---7---5--4--5----4|4-----------2--5-5/7------------|--------------------------------|4--^----------------------------|
A|--------------------------------|--------------------------------|-------------------------2------|--------------------------------|
E|--------------------------------|--------------------------------|--------------------------------|--------------------------------|

                                                                                                                             Go To (%)
e|--------------------------------|--------------------------------|------5--------5----------5-----|------3--------3----------3----||
B|--------------------------------|--------------------------------|-----------5-------5---------5--|-----------3-------3---------3-||
G|--------------------------------|--------------------------------|--------------------------------|-0-------0---0---0------0------||
D|--------------------------------|--------------------------------|-0-------0---0---0------0-------|-------------------------------||
A|--------------------------------|--------------------------------|--------------------------------|-------------------------------||
E|--------------------------------|--------------------------------|--------------------------------|-------------------------------||

(*)
 {Em}                              {C}                              {Am}                             {F}
e|0-------------------------------|0-------------------------------|--------------------------------|1-------------------------------|
B|0-------------------------------|1-------------------------------|0-h-1---------------------------|1-------------------------------|
G|0-------------------------------|0-------------------------------|2-------------------------------|2-------------------------------|
D|2-------------------------------|2-------------------------------|2-------------------------------|3-------------------------------|
A|2-------------------------------|3-------------------------------|0-------------------------------|0-------------------------------|
E|0-------------------------------|--------------------------------|--------------------------------|--------------------------------|


 {Em}
e|0-------------------------------||
B|-0------------------------------||
G|--0-----------------------------||
D|---2----------------------------||
A|----2---------------------------||
E|-----0--------------------------||
Comments