Bush - Head Full Of Ghosts Chords & Tabs

 

Head Full Of Ghosts Chords & Tabs

Bush Chords & Tabs

Version: 1 Type: Tab 0 ratings
1 star 2 stars 3 stars 4 stars 5 stars
comments

Head Full Of Ghosts Tab

Artist:Bush
Song:Head Full of Ghosts
Tabber:Brendan Roy
Tuning: Standard

Key:
/ Means slide up to the next note on the tab
12(13) means pull the 12th fret up to sound like the 13th.
* Next to a note means it's fast and pretty quite

Intro

Rythm
------------------------------------------|
------------------------------------------|
1010-9/101010-9/101010-9/101010-9/1010----|
x-x--x-x-x-x--x/x-x-x--x/x-x-x--x/x-x-----|
8-8--7/8-8-8--7/8-8-8--7/8-8-8--7/8-8-----|
------------------------------------------|repeat

Lead
----17---------13----13-------------13------|
-13----13-10-9---13----13-10-9---10----13---|
--------------------------------------------|
------------------------------14*-----------|
--------------------------------------------|
--------------------------------------------|

----17---------13----13-------------13------|
-13----13-10-9---13----13-10-9---10---------|
--------------------------------------------|
------------------------------14*-----------|
--------------------------------------------|
--------------------------------------------|
[ Tab from: http://www.guitartabs.cc/tabs/b/bush/head_full_of_ghosts_tab.html ]
Verse
------------------------------------------|
------------------------------------------|
-------------5555555--5-------------------|
57777777--7--5555555-5-5------------------|
57777777-7-7-33333333---------------------|
355555555---------------------------------|

Chorus:(slow)

Rythm
----------------------------------------|
----------------------------------------|
10-10-10--------------------------------|
10-10-10-10-10-10-12-12-12-8-8-8--------|
8--8--8--10-10-10-12-12-12-8-8-8--------|
----------8--8--8-10-10-10-6-6-6--------|

Lead 1
------------------------------|
------------------------------|
----10----9----7----9-----10--|
-10----10---10---10---10------|
------------------------------|
------------------------------|

|repeat alot

Bridge 
rythm :                      
---------------------------------------------|
---------------------------------------------|
---------------------------------------------|
---------------333333-777777-----------------|
---------------333333-777777-----------------|
-5-5-5-4-5-5-5-111111-555555-----------------|

lead
------------------------------------------|
-10(11)-------10(11)--9(10)---------------|
------------------------------------------|
------------------------------------------|
------------------------------------------|
------------------------------------------|
====
Comments