Bush - Greedy Fly Chords & Tabs

 

Greedy Fly Chords & Tabs

Bush Chords & Tabs

Version: 1 Type: Tab 0 ratings
1 star 2 stars 3 stars 4 stars 5 stars
comments

Greedy Fly Tab

   
##################################################################################
# This file is the author's own work and represents their interpretation of the  #
# song. You may only use this file for private study, scholarship, or research.  #
##################################################################################

Date: Sat, 05 Apr 1997 19:33:07 +0100
From: Dan Meloche 

Greedy Fly by BUSH
Razorblade Suitcase 
Tabbed by John Meloche (d.meloche@sauron.globalx.net)

Normal Tuning

This is 100% right

Chord Formations:
  C5 Cm7 Ab5 Bb F  Ab Cm
e------------6--1--4--8--
B------------6--1--4--8--
G--5--3------7--2--5--8--
D--5--5--6---8--3--6--10-
A--3--3--6---8--3--6--10-
E--------4---6--1--4--8--


Intro:

e--8-----------------|------------8---------|
B-----8---8---8----8-|-------8------8----8--|
G-------8---8--------|----11---11-----11----|
D--10-----------10---|--9-------------------|
A--------------------|----------------------|
E--------------------|----------------------|

e--------------------|------------8---------|
B-----8---8---8----8-|-------8------8----8--|
G-------8---8--------|----11---11-----11----|
D--10-----------10---|--9-------------------|
A--------------------|----------------------|
E--------------------|----------------------|

Riff A:
e--------------------|------------8---------|
B-----8---8---8----8-|------11------11--11--|
G-------8---8--------|----8----8------8-----|
D--10-----------10---|--9-------------------|
A--------------------|----------------------|
E--------------------|----------------------|

Riff B:
e-8-----8--------|
B---9-9----------|
G---------10-10--|
D----------------|
A----------------|
E----------------|

Riff C:
e--------------------------------------------------|
B--8--8--8--8--8--8--------------------------------|
G--8--8--8--8--8--8--8--8--8--8--8--8--8--8--8--8--|
D--10-10-10-10-10-10-10-10-10-10-10-10-10-10-10-10-|
A--------------------11-11-11-11-11-11-11-11-11-11-|
E--------------------------------------------------|

note: there is a change between the intro and riff A. In the intro
the chords used are Cm and Cmsus#4/B, and in riff A the chords are
Cm and Cm7/B.

Play Intro
Play Riff A 2x with background chords C5 Ab5

C5 Ab5
C5 Ab5

verse 1

(Play Riff A 2 times)

verse 2

(Play Riff A)

pre-chorus:

(With Riff C)

chorus:

Bb  F  Ab  F  Ab   F    Bb 
make up your mind
F      Ab   F    Bb    F  Ab  F  
      need some help
      Ab    F    Bb    F     Ab
find this mind, mind,   mind


verse 3:

C5 Ab5
C5 Ab5

(play riff A)

pre-chorus:
(first line with riff c)

chorus

(play riff B 2x)

chorus


Bb  F  Ab

Solo (totally correct even though it may sound weird):

e-------------------------------------------------------------------
b-----------------------------------------------------11fb----------
g------------------------------------8--8v--10--10fb----------------
d--------------------------------10---------------------------------
a--10-----13/12--10--6------6-------------------------------10------
e--8------11/10--8---4------4-------------------------------8-------

e--8-----8-----8-----8------------------8-----8---------8-----8-----
b--11fb--11fb--11fb-----11--------11----11----11fb--11--11fb--11fb--
g---------------------------8v----8---------------------------------
d-------------------------------------------------------------------
a-------------------------------------------------------------------
e-------------------------------------------------------------------

e--8---------11fb--11fb--11fb--11fb--------|
b--11fb------11fb--11fb--11fb--11fb--------|
g---------8--------------------------------|
d------------------------------------------|
a--------------------------------------10--|
e--------------------------------------8---|

Bb  F  Ab
Bb  F  Ab
Bb  F  Ab

Finish:

Bb  F  Ab  F  Ab   F    Bb 
make up your mind
F      Ab   F    Bb    F  Ab  F  
      need some help
      Ab    F    Bb    F     Ab
find this mind, mind,   mind

Mind
F
Mind
Ab
Mind
F
Mind
Ab
Mind
F Bb
Mind
F
Mind
Ab
Mind

Finish with about 5 or 6 hits of Ab


******************************************
******************************************


Date: Wed, 2 Apr 1997 00:48:23 -0600 (CST)
From: matthew michael koenig 

The current tab of Greedy Fly by Bush is a little off.  This tab should 
be a little better, especially the intro.

Greedy Fly 
Recorded by Bush
>From the album Razorblade Suitcase
Transcribed by Matt Koenig (mmkoenig@students.uiuc.edu)

This is pretty close...maybe a couple notes off in places.
I put a bar in the places on the intro that make it easiest to learn.

Intro 
e-----------------------------8-------|-----------8-------|
B-----8----8------8-----8-------8---8-|----8--------8---8-|
G------------8------8-------8-----8---|---------8-----8---|
D--10---10-----10-----9---9-----------|-10---10-----------|
A-------------------------------------|-------------------|
E-------------------------------------|-------------------|

e----------8-------|-----------8-------|--------8-------|
B----8-------8---8-|----8--------8---8-|---8-11---8---8-|
G--------8-----8---|---------8-----8---|------------8---|
D--9---9-----------|-10---10-----------|-9---9----------|
A------------------|-------------------|----------------|
E------------------|-------------------|----------------|

e-----------8-------|----------8-----|
B----8--------8---8-|---8---11---8---|
G---------8-----8---|--------------8-|
D-10---10-----------|-9---9----------|
A-------------------|----------------|
E-------------------|----------------|

Riff 1  (Starts playing near end of the intro)

e-------------------------------|
B-------------------------------|    (00:08)
G-------------------------------| 
D-10-10-10-10-10--6-6-6-6-6-6-6-|
A-10-10-10-10-10--6-6-6-6-6-6-6-|
E-8--8--8--8--8---4-4-4-4-4-4-4-|

Riff 2

e------------------------|
B------------------------|    (01:25)
G------------------------|
D-8-8--3-3--6-6--3--6--3-|
A-8-8--3-3--6-6--3--6--3-|
E-6-6--1-1--4-4--1--4--1-|

Fill A
[ Tab from: http://www.guitartabs.cc/tabs/b/bush/greedy_fly_tab.html ]
e-8----8---8----8-------|    First time, play twice  (00:43)
B---8----8---11---8---8-|
G-------------------8---|    Second time, play once  (01:05) & (02:09)
D-----------------------|
A-----------------------|
E-----------------------|

Fill B

e-8-----8-----|
B---9-9---9-6-|   place two times at (02:46)
G-------------|
D-------------|
A-------------|
E-------------|

Played over Riff 1 

e-----------------------------|
B-----------------------------|    Most noticable at (01:47)
G-----------------------------|    played lightly in other parts
D-10-10-8-10-8-----------10-8-|
A--------------8--8-10-8------|
E-----------------------------|

Riff 3

e------------------------------------------|
B------------------------------------------|      (03:15)
G------------------------------------------|
D-10----13-----8-----10----13-----8-----10-|
A-10----13-----8-----10----13-----8-----10-|
E-8-----11-----6-----8-----11-----6-----8--|

Fill C  (^ denotes bend)

e---------------------------------------------
B-13-13-13-----13-13-13-----13---13---13---13-    (03:31)
G-12-12-12-15--12-12-12-15--12---12---12---12-
D-^^-^^-^^-14--^^-^^-^^-14--^^---^^---^^---^^-
A---------------------------------------------
E---------------------------------------------

Matt Koenig
http://www.students.uiuc.edu/~mmkoenig/fof.html

This is 'Greedy Fly' by 'Bush'.  It's a really cool song off the 'Razorblade Suitcase' album.  I know there is another copy of this song posted, but I tried playing it with the CD and it was not right.  So, I decided to tab it myself.  It sounds right, however there may be a few missing notes here and there.  Anyway, here it is.


Riff 1:
(Some distortion)
e:----------------------------8-----------------8----------------
B:----8---8---8---8------8------8----8------8-----8---8------8---
G:------8---8---8-----11---11-----11------8---8-----8-----11---11
D:-10---------------9------------------10---------------9--------
A:---------------------------------------------------------------
E:---------------------------------------------------------------
  Riff 2:
e:-8-------- ----------8----------------8------------------------
B:---8----8- ------8-----8---8-----11-----11---8-----------------
G:-----11--- ----8---8-----8-----8----8------8-------------------
D:---------- -10---------------9---------------------------------
A:---------- ----------------------------------------------------
E:---------- ----------------------------------------------------


******************************************************************

Date: Fri, 04 Apr 1997 11:51:04 EST
From: jason a gray 

Song: Greedy Fly
Artist: Bush
Album: Razorblade Suitcase
Words and Music By: Galvin Rossdale
Tabbed By: Jason Gray (sacred@juno.com)

    
 Intro:    
        (Moderate Rock: tempo = 112)
    
    Cm                          Cmsus#4/B
e|--8--------------------------|----------------8-------------|
B|------8-----8-----8------8---|---------8---------8------8---|
G|---------8-----8-------------|-----11-----11--------11------|
D|--10-----------------10------|--9---------------------------|
A|-----------------------------|------------------------------|
E|-----------------------------|------------------------------|

    Cm                          Cmsus#4/B           
e|---------------8-------------|----------------8-------------|
B|---------8--------8----------|---------8---------8------8---|
G|------8-----8------------8---|-----11-----11--------11------|
D|--10-----------------10------|--9---------------------------|
A|-----------------------------|------------------------------|
E|-----------------------------|------------------------------|

 
 Riff A                                            End Riff A
    Cm                           Cm7/B
e|---------------8-------------|---------------8--------------|
B|*--------8--------8----------|--------11--------11-----11--*|
G|------8-----8------------8---|-----8------8---------8-------|
D|--10-----------------10------|--9---------------------------|
A|*----------------------------|-----------------------------*|
E|-----------------------------|------------------------------|


 Rhy. Fig. 1                                    End Rhy. Fig. 1
     C       Cm7       Ab5
e|-----------------------------|------------------------------|
B|*----------------------------|-----------------------------*|
G|---5---5---3---5-------------|------------------------------|
D|---5---5---5---5-----6---6---|--6---6---6------6---6---6----|
A|*--3---3---3---3-----6---6---|--6---6---6------6---6---6---*|
E|---------------------4---4---|--4---4---4------4---4---4----|

 
 Rhy. Fig. 2                                    End Rhy. Fig. 2
      Cm                Ab
e|-----------------------------|------------------------------|
B|----8--8--8--8--8--8---------|------------------------------|
G|----8--8--8--8--8--8--8--8---|--8--8--8--8--8--8--8--8------|
D|----10-10-10-10-10-10-10-10--|--10-10-10-10-10-10-10-10-----|
A|----------------------11-11--|--11-11-11-11-11-11-11-11-----|
E|-----------------------------|------------------------------|
 
 
 Rhy. Fig. 3                                    End Rhy. Fig. 3
     Bb    F         Ab
e|-----------------------------|------------------------------|
B|-----------------------------|------------------------------|
G|---7---7\2---2---2/5---5---5\|-2---2---2/5---5\2---2/7------|
D|---8---8\3---3---3/6---6---6\|-3---3---3/6---6\3---3/8------|
A|---8---8\3---3---3/6---6---6\|-3---3---3/6---6\3---3/8------|
E|---6---6\1---1---1/4---4---4\|-1---1---1/4---4\1---1/6------|

 Rhy. Fig. 4                          (quiet here)
    Bb    F         Ab
e|-----------------------------|------------------------------|
B|-----------------------------|------------------------------|
G|--7---7\2---2---2/5---5---5--|------------------------------|
D|--8---8\3---3---3/6---6---6--|------------------------------|
A|--8---8\3---3---3/6---6---6--|------------------------------|
E|--6---6\1---1---1/4---4---4--|------------------------------|

                 End Rhy. Fig. 4 
    Bb    F         Ab
e|-----------------------------|
B|-----------------------------|
G|--7---7\2---2---2/5---5---5--|
D|--8---8\3---3---3/6---6---6--|
A|--8---8\3---3---3/6---6---6--|
E|--6---6\1---1---1/4---4---4--|

 
 Fill 1                                              End Fill 1
       Fm         
e|-----8----------8------------|-----8----------8-------------|
B|--------9--9-----------------|--------9--9------------------|
G|-------------------10--10----|-------------------10--10\----|
D|-----------------------------|------------------------------|
A|-----------------------------|------------------------------|
E|-----------------------------|------------------------------|


 The solo isn't worth the time to type out, most of it is simple high E
 eighth fret and a full bend on the 11th fret on the B string.

 Questions, comments, corrections, requests welcome. 
 
 -Jason (sacred@juno.com)

sacred@juno.com
Comments