Bush - Greedy Fly Chords & Tabs

 

Greedy Fly Chords & Tabs

Bush Chords & Tabs

Version: 2 Type: Bass Tab 0 ratings
1 star 2 stars 3 stars 4 stars 5 stars
comments

Greedy Fly Bass Tab

Bush - Greedy Fly
>From Razorblade Suitcase
Tabbed by David Parent 

Personally, I like to see the entire tab with the # of repeats, etc., instead
of just the main riffs. So for everyone like me, here you go, this is as much
as I could figure out.

Intro

|-rest-until-0:09-|

Use either this:              x4
|-------------------------------|
|-------------------------------|
|-------------------------------|
|-8-8-8-8-8---4-4---4-4---4-4-4-|

Or this:                      x4
|-------------------------------|
|-------------------------------|
|-3-3-3-3-3---------------------|
|-------------4-4---4-4---4-4-4-|

1st Verse = Intro x10

Prechorus = Intro x4

Chorus                      x3
|-----------------------------|
|-----------------------------|
|-----------------------------|
|-6-6---1-1---4-4---1-1-1-4-1-|

|-----------------------------|
|-----------------------------|
|-----------------------------|
|-6-6---1-1---4-4-------------|

|-----------------------------|
|-----------------------------|
|-----------------------------|
|-6-6---1-1---4-4-4-4-4-4-4-4-|

2nd Verse x6

Prechorus x4
[ Tab from: http://www.guitartabs.cc/tabs/b/bush/greedy_fly_btab_ver_2.html ]
2nd Chorus                  x4
|-----------------------------|
|-----------------------------|
|-----------------------------|
|-6-6---1-1---4-4---1-1-1-4-1-|

rest for short guitar solo
                            x4
|-----------------------------|
|-----------------------------|
|-----------------------------|
|-6-6---1-1---4-4---1-1-1-4-1-|
                            x2
|-----------------------------|
|-----------------------------|
|-----------------------------|
|-6-6---1-1---4-4-------------|

Here there some weird stuff that I can figure out. There something played
in the background of the little guitar solo from 3:14 to 3:44.

3rd Chorus                  x2
|-----------------------------|
|-----------------------------|
|-----------------------------|
|-6-6---1-1---4-4---1-1-1-4-1-|
                            x2
|-----------------------------|
|-----------------------------|
|-----------------------------|
|-6-6---1-1---4-4-------------|
                            x5
|-----------------------------|
|-----------------------------|
|-----------------------------|
|-6-6---1-1---4-4---1-1-1-4-1-|

|-----------------------------|
|-----------------------------|
|-----------------------------|
|-6-6---1-1---4-4-4-4-4-4-----|
Comments