Bush - Glycerine Chords & Tabs

 

Glycerine Chords & Tabs

Bush Chords & Tabs

Version: 5 Type: Tab 1 rating
1 star 2 stars 3 stars 4 stars 5 stars
comments

Glycerine Tab

##################################################################################
# This file is the author's own work and represents their interpretation of the  #
# song. You may only use this file for private study, scholarship, or research.  #
##################################################################################

Artist : Bush
Song   : Glycerine
Album  : Sixteen Stone
E-Mail : mikeisg0d@hotmail.com
Web    : http://www.angelfire.com/indie/tspocw/

I tabbed this song because I've seen so many incorrect versions of this song and it was starting to piss me off. Since the Palm Muting in this song is difficult to write palm mute any chord with a * below it. Listen to the song for timings its not that hard. A very good song for people just picking up the guitar. Lyrics are included at the bottom. Now on to the tab!

[ Tab from: http://www.guitartabs.cc/tabs/b/bush/glycerine_tab_ver_5.html ]
===============================================
Verse

e|-----------------------------------------------------------------------------
b|-----------------------------------------------------------------------------
g|------------------5-5-5-5-5-5-5-5---7-7-7-7-7-7-7-7---3-3-3-3-3-3-3-3--------
d|3-3-3-3-3-3-3-3---5-5-5-5-5-5-5-5---7-7-7-7-7-7-7-7---3-3-3-3-3-3-3-3--------
a|3-3-3-3-3-3-3-3---3-3-3-3-3-3-3-3---5-5-5-5-5-5-5-5---1-1-1-1-1-1-1-1--------
E|1-1-1-1-1-1-1-1--------------------------------------------------------------
    * *   * *   *     * *   * *   *     * *   * *   *     * *   * *   *

Chrous

e|------------------------------------------------
b|------------------------------------------------
g|------------------5-5-5-5-5---3-3-3-3-3---------
d|3-3-3-3-3-3-3-3---5-5-5-5-5---3-3-3-3-3---------
a|3-3-3-3-3-3-3-3---3-3-3-3-3---1-1-1-1-1---------
E|1-1-1-1-1-1-1-1---------------------------------
    * *   * *   *
Comments