Bush - Glycerine Chords & Tabs

 

Glycerine Chords & Tabs

Bush Chords & Tabs

Version: 3 Type: Tab 0 ratings
1 star 2 stars 3 stars 4 stars 5 stars
comments

Glycerine Tab

bush
glycerine
by sebastian lopez


[ Tab from: http://www.guitartabs.cc/tabs/b/bush/glycerine_tab_ver_3.html ]
-----------------------------------------------------------
-----------------------------------------------------------
----------------------------------------------------------- repeat
----------------5-5-5-5-5-5-5--7-7-7-7-7-7-7--3-3-3-3-3-3-3
-3-3-3-3-3-3-3--3-3-3-3-3-3-3--7-7-7-7-7-7-7--3-3-3-3-3-3-3
-1-1-1-1-1-1-1---------------------------------------------


---------------------------------------------
---------------------------------------------
---------------------------------------------
----------------5-5-5-5-3-3-3-3--------------
-3-3-3-3-3-3-3--3-3-3-3-1-1-1-1--------------
-1-1-1-1-1-1-1-------------------------------


and thats it !!!!!
enjoy it
Comments