Bush - Forty Miles From The Sun Solo Chords & Tabs

 

Forty Miles From The Sun Solo Chords & Tabs

Bush Chords & Tabs

Version: 1 Type: Tab 0 ratings
1 star 2 stars 3 stars 4 stars 5 stars
comments

Forty Miles From The Sun Solo Tab

   
##################################################################################
# This file is the author's own work and represents their interpretation of the  #
# song. You may only use this file for private study, scholarship, or research.  #
##################################################################################

AUTHOR:        BUSH
TITLE:         40 MILES FROM THE SUN
TRANSCRIPTION: PATRYK "PAZI" MAZUREK
E-MAIL:        pazee@poczta.fm
COMMENTS:      APPRECIATED  :)))
KIND OF TAB:   CHORDS


SOLO 1:
                                                                               
E||---------------------------------|-----------------------------------------|
B||---------------------------------|-----------------------------------------|
G||---------------------------------|-----------------------------------------|
D||--9--------9----9/-12\-9--7------|--9----9/-12\-9--12--10----10----10--10--|
A||--7-------------7---------5------|--7----7---------------------------------|
E||---------------------------------|-----------------------------------------|

[ Tab from: http://www.guitartabs.cc/tabs/b/bush/forty_miles_from_the_sun_solo_tab.html ]
                                                                       
E|--------------------------------------|------------------------------||
B|--------------------------------------|------------------------------||
G|--------------------------------------|------------------------------||
D|--10--10--9----9----9--9--9--9--10----|--9----10------9--------------||
A|--------------------------------------|------------------------------||
E|--------------------------------------|------------------------------||


SOLO 2:

E||---------------------|--------------------|---------------------|--------0----------||
B||--5--------4------5--|--------4------5----|--8----7------5------|-------------------||
G||---------------------|--------------------|---------------------|-------------------||
D||---------------------|--------------------|---------------------|-------------------||
A||---------------------|--------------------|---------------------|-------------------||
E||---------------------|--------------------|---------------------|-------------------||

CHORDS:

     Em   Dsus2  Cadd9   Asus2  
E||--0------0------3------0----||
B||--0------3------3------0----||
G||--0------2------0------2----||
D||--2------0------2------2----||
A||--2-------------3------0----||
E||--0-------------------------||
Comments