Bush - Bubbles Chords & Tabs

 

Bubbles Chords & Tabs

Bush Chords & Tabs

Version: 1 Type: Tab 0 ratings
1 star 2 stars 3 stars 4 stars 5 stars
comments

Bubbles Tab

   
#----------------------------------PLEASE NOTE---------------------------------#
#This file is the author's own work and represents their interpretation of the #
#song. You may only use this file for private study, scholarship, or research. #
#------------------------------------------------------------------------------#
Date: Fri, 05 Dec 1997 19:56:21 -0500 (EST)
From: N1Nana9568 
Subject: Tab: Bubbles by Bush

Song: Bubbles
Band: Bush
Album: Mallrats: Soundtrack
Tabbed by: Jesse Nepivoda

Intro
      D#5      D5    D#5   A5
e)-------------------------------------------------
B)-------------------------------------------------
G)---8--8--8---7--7---8--8---2--2--2---------------
D)---8--8--8---7--7---8--8---2--2--2---------------
A)---6--6--6---5--5---6--6---0--0--0---------------
E)-------------------------------------------------
Above riff x2 
then
e)--------------------------------------------------
B)--------------------------------------------------
G)---8--8--8--7--7--8--8--14--14--14----------x2----
D)--------------------------------------------------
A)--------------------------------------------------
E)--------------------------------------------------

Verses
Muting that produces harmonics
and weird feedback

Pre-Chorus
    C5  D5
e)--------------
B)--------------
G)---5---7------
D)---5---7------
A)---3---5------
E)--------------
[ Tab from: http://www.guitartabs.cc/tabs/b/bush/bubbles_tab.html ]
Chorus
     G5                        F#5
e)--------                  e)--------
B)--------                  B)--------
G)--------    x12           G)--------     x12
D)---5----                  D)---4---
A)---5----                  A)---4---
E)---3----                  E)---2---


Bridge
e)---------7--6--9-------
B)----8-------------------
G)------------------------
D)------------------------
A)------------------------
E)------------------------
after above riff does x1 do
e)-------------------------------------------------
B)-------------------------------------------------
G)-------------------------------------------------
D)---5--5--5--5---5--5--5--5---5--5----4--4--4--4--
A)---5--5--5--5---5--5--5--5---5--5----4--4--4--4--
E)---3--3--3--3---3--3--3--3---3--3----2--2--2--2--

e)-----------------------
B)-----------------------
G)-----------------------
D)---4--4--4--4---4--4---
A)---4--4--4--4---4--4---
E)---2--2--2--2---2--2---
then
e)----------------------------------------------------------------------
B)----------------------------------------------------------------------
G)----------------------------------------------------------------------b=bend 1/2 step
D)----------------------------------------------------------------------*=feedback
A)---6--6--5--5--6--6--0--0--0--6--6--5--5--6--6--12b*-------------------
E)-----------------------------------------------------------------------

End with chorus over and over

Comments