Bush - Bone Driven Chords & Tabs

 

Bone Driven Chords & Tabs

Bush Chords & Tabs

Version: 1 Type: Tab 0 ratings
1 star 2 stars 3 stars 4 stars 5 stars
comments

Bone Driven Tab

BAND: Bush
SONG: Bone Driven
CD: Razorblade Suitcase

Intro:

-------------------------------|
------0----0-------------------|
-------------------------------|
---2-----2---------------------|
-0-----3-----2-/7-7-7-7-5-5/10-|
-------------------------------|

Verse:

Part 1:

Loosly:

----------------0----0-0-|
-----0------0---0----0-0-|
----------------0-0--0-0-|
---2------2-----0-0--0---|
-0----0-3-----2---2------|
-------------------------|

Part 2:
[ Tab from: http://www.guitartabs.cc/tabs/b/bush/bone_driven_tab.html ]
----------------0-7/9---|
-----0------0---0-----7-|
------------------------|
---2------2-------------|
-0----0-3-----2---------|
------------------------|

Chorus:

--------------------|
--------------------|
-5--5-5-5--2--2-2-2-|
-5--5-5-5--2--2-2-2-|
-3--3-3-3--0--0-0-0-|
-3--3-3-3--0--0-0-0-|

Bridge: ("I was wrong and I will wait...")

Switch between these chords:

-------|
-------|
-7--9--|
-7--9--|
-5--7--|
-------|
After this rhythm is done, play the opening rhythm once and start
playing this chord over and over:

-----|
-----|
-12--|
-12--|
-10--|
-----|

Nigel throws feedback in here all over.
====
Comments