Bush - Bomb Chords & Tabs

 

Bomb Chords & Tabs

Bush Chords & Tabs

Version: 1 Type: Tab 0 ratings
1 star 2 stars 3 stars 4 stars 5 stars
comments

Bomb Tab

#----------------------------------PLEASE NOTE--------------------------------#
#This file is the author's own work and represents their interpretation of the#
#song. You may only use this file for private study, scholarship, or research.#
#-----------------------------------------------------------------------------#
#-- File created with Instab - http://www.pconline.com/~smcarey/instab.html --#
#-----------------------------------------------------------------------------#
[ Tab from: http://www.guitartabs.cc/tabs/b/bush/bomb_tab.html ]
Author/Artist: Bush
Title: Bomb
Album: Sixteen Stone
------------------------------------------------------------------------------
------------------------------------------0---------------1---0---------------
--------------------------------------0---------------------------------------
----------2-----------------------0-------------------------------------------
------2-------0---3-------3-3/5-------------5\3---3---3-----------------------
--0---------------------------------------------------------------------------
  1   +   2   +   3   +   4   +   5   +   6   +   7   +   8   +               

------------------------------------------------------------------------------
------------------------------------------0---------------1---0---------------
----------1---------------2-----------0---------------------------------------
------2-------0---3---3-----------0-------------------------------------------
--2-------------------------3/5-------------5\3---3---3-----------------------
------------------------------------------------------------------------------
  1   +   2   +   3   +   4   +   5   +   6   +   7   +   8   +               

Comments