Bush - Adrenaline Chords & Tabs

 

Adrenaline Chords & Tabs

Bush Chords & Tabs

Version: 1 Type: Tab 0 ratings
1 star 2 stars 3 stars 4 stars 5 stars
comments

Adrenaline Tab

Song: Adrenaline
Artist: Bush
Tabber: Rob Marston (rob@leftatom.com)
Tuning: Standard (EGBDAE)
Notes: Gavin Rosdale has one of the best voices I've ever heard.
If you havn't already, listen to the song Glycerine. It's it one
of my all-time favorites. Very easy to play too. 



The intro and verse are made up of two parts. One guitar plays
a few notes in Natural Harmonics, the other plays the rhythm using
power chords. Both are repeated, listen to the song for the rhythm.  


Guitar 1 (Natural Harmonics):

e-|------------------------|
B-|--------*7--------*12---|
G-|---*5--------*7---------|   
D-|------------------------|
A-|------------------------|
E-|------------------------|

Guitar 2 (Rhythm of power chords):
[ Tab from: http://www.guitartabs.cc/tabs/b/bush/adrenaline_tab.html ]
e-|-------------------|
B-|-------------------|
G-|-----------5---7---| 
D-|---7---5---5---7---|
A-|---7---5---3---5---|
E-|---5---3-----------|


After the intro and verse there is a small are where a few notes are played
before the chorus. Here it is:


Guitar 1 (Picked notes):

e-|---------------------|
B-|---------------------|
G-|-------0-------0-----| 
D-|-----4---4---4---4---|
A-|---2-------2---------|
E-|---------------------|


Next comes the chorus. A rhythm of stumming using the following power chords.
Repeat. Listen to the song for the rhythm.


Guitar 2 (Rhythm of power chords):

e-|-------------------|
B-|-------------------|
G-|---5-------5-------| 
D-|---5---5---5---7---|
A-|---3---5---3---7---|
E-|-------3-------5---|


I'm pretty sure thats all the parts of the song. Make sure to listen
to the song for stumming patterns! There's some areas of the song where
the chords are muted. You'll have to figure that one out. Have fun!
Comments