Bush - A Tendency To Start Fires Chords & Tabs

 

A Tendency To Start Fires Chords & Tabs

Bush Chords & Tabs

Version: 1 Type: Bass Tab 0 ratings
1 star 2 stars 3 stars 4 stars 5 stars
comments

A Tendency To Start Fires Bass Tab

A Tendency to Start Fires
Performed by Bush
On the album Razorblade Suitcase
Tabbed by Chris Brown

Intro/Prechorus
G|------------------------------------------------------------------------------------|
D|------------------------------------------------------------------------------------|
A|--5-5-5-5------------5-5-5-5-----------5-5-5-5--------------------------------|
E|-------------6-6-6-6-----------6-6-6-6-----------6-6-6-6--8-8-8-6-8-6------|
[ Tab from: http://www.guitartabs.cc/tabs/b/bush/a_tendency_to_start_fires_btab.html ]
Verse
G|---------------------------------------------------------|
D|---------------------------------------------------------|
A|--5-5-5-5-5-5-5-5-5-5-5-5-5-5-5-5-5-5-5-5-5-5-|
E|---------------------------------------------------------|

Chorus
G|---------------------------------------------------------|
D|---------------------------------------------------------|
A|----------3-3-3-----------------------------------------|
E|--1-1-1----------5-5-5--3-3-5-3-5-------------------|

christopher@gbamed.com



Comments