Burzum - Stemmen Fra Taarnet Chords & Tabs

 

Stemmen Fra Taarnet Chords & Tabs

Burzum Chords & Tabs

Version: 2 Type: Tab

Stemmen Fra Taarnet Tab

   
Tabbed by: eduardo_metal
E-mail: slash.petrucci@gmail.com
Band: Burzum
Song: Stemmen Fra Taarnet
Album: Aske
Label: Deathlike Silence Productions
Tuning: Standard (E A D G B E)

Riff1
e-------|
B-------|
G-------|   Do it some times
D-3-----|
A-3-----|
E-1-----|

Riff 2
e-----------------------------------------------------------|
B-----------------------------------------------------------|
G-6-6-6-5-5-6-6-6--6-8-8-9-6-6-6-5-5-6-6-6------------------|
D-6-6-6-5-5-6-6-6--6-8-8-9-6-6-6-5-5-6-6-6--7---------------|
A-4-4-4-3-3-4-4-4--4-6-6-7-4-4-4-3-3-4-4-4--7---------------|
E-------------------------------------------5---------------|
[ Tab from: http://www.guitartabs.cc/tabs/b/burzum/stemmen_fra_taarnet_tab_ver_2.html ]
Riff 3 (This riff is very fast, listen to the song to get the rithm)
e---------------------------------------------------------------------------|
B---------------------------------------------------------------------------|
G------------11-11-10-10-11-11-10-11-11-11-11-13-13-11-11-10-10-11-11-10----|
D-8-8-8-8-88-11-11-10-10-11-11-10-11-11-11-11-13-13-11-11-10-10-11-11-10-8--|
A-8-8-8-8-88-9--9--8--8--9--9--8--9--9--9--9--11-11-9--9--8--8--9--9--8--8--|
E-6-6-6-6-66-------------------------------------------------------------6--|

Riff 4
e---------------------|
B---------------------|
G---------------------|
D-8--9--8--11--10--8--|   Do it some times and enter the riff 1 again.
A-8--9--8--11--10--8--|
E-6--7--6--9---8---6--|

(Riff 2)

Riff 5
e----
B----
G----    Do it ending the riff 2 some times
D-6--
A-6--
E-4--

Riff 6
e----------------------------|
B----------------------------|
G----------------------------|   Do it 2 times and enter the riff 3 again
D-66666666-77777777-66666666-|
A-66666666-77777777-66666666-|
E-44444444-55555555-44444444-|

(Riff 3)

(Riff 4)

(Riff 2)

END

Listen the song to get the rithm.
Any comments, suggestions or whatever are welcome to my e-mail :).

ENJOY!