Burzum - Stemmen Fra Taarnet Chords & Tabs

 

Stemmen Fra Taarnet Chords & Tabs

Burzum Chords & Tabs

Version: 1 Type: Tab 0 ratings
1 star 2 stars 3 stars 4 stars 5 stars
comments

Stemmen Fra Taarnet Tab

Burzum - Stemmen Fra Taarnet (From "Aske")

Transcribed by Fredrik Karlsson (Battlescar_psy@hotmail.com)

Done in 20 minutes. I didn't have time to check for corrections, but it's
a fairly simple song so I think it should be correct. 

Riff 1 (Fade in)
e[------------------------------------------------------------------]
b[------------------------------------------------------------------]
g[-3-3-3-3-3--------------------------------------------------------]
d[-3-3-3-3-3--------------------------------------------------------]
a[-1-1-1-1-1--------------------------------------------------------]
E[------------------------------------------------------------------]
[ Tab from: http://www.guitartabs.cc/tabs/b/burzum/stemmen_fra_taarnet_tab.html ]
Riff 2
e[-----------------------|------------------------------------------]
b[-----------------------|------------------------------------------]
g[-6-6-6-5-5-6-6-6-8-8-9-|-6-6-6-5-5-6-6-6-2-2----------------------]
d[-6-6-6-5-5-6-6-6-8-8-9-|-6-6-6-5-5-6-6-6-2-2----------------------]
a[-4-4-4-3-3-4-4-4-6-6-7-|-4-4-4-3-3-4-4-4-0-0----------------------]
E[-----------------------|------------------------------------------]

Riff 3
e[------------------------------------------------------------------]
b[------------------------------------------------------------------]
g[-3-3-3-3-3-3-3-3-6-6-6-6-8-6-6-5-5-6------------------------------]
d[-3-3-3-3-3-3-3-3-4-4-4-4-6-4-4-3-3-4------------------------------]
a[-1-1-1-1-1-1-1-1--------------------------------------------------]
E[------------------------------------------------------------------]

Riff 4
e[------------------------------------------------------------------]
b[------------------------------------------------------------------]
g[-3-3-3-3-4-4-4-4-3-3-3-3-6-6-6-5-5--------------------------------]
d[-3-3-3-3-4-4-4-4-3-3-3-3-6-6-6-5-5--------------------------------]
a[-1-1-1-1-2-2-2-2-1-1-1-1-4-4-4-3-3--------------------------------]
E[------------------------------------------------------------------]
Comments