Burzum - Dunkelheit Chords & Tabs

 

Dunkelheit Chords & Tabs

Burzum Chords & Tabs

Version: 2 Type: Tab

Dunkelheit Tab

   
Band: Burzum
Album: Filosofem
Song: Dunkelheit

Copyright (c)  Misanthropy Records
Version 1.0 - 30.9.2005

Transcribed By: Ville Nousiainen
Email:          blackened_81@hotmail.com




Tuning E A D G B E


Fade in
|-----|
|-----|
|-----|
|-----|
|-----|
|--0--|

Riff 1 x4
|---------0-------------------------------0------------------------|
|---0---0---0---0---0---0---0---0---0---0---0---0---0---0---0---0--|
|-----0-------0-------0-------0-------0-------0-------0-------0----|
|-2---------------1---------------2---------------4-------1--------|
|-2---------------1-------2-------2---------------4-------1--------|
|-0-----------------------2-------0--------------------------------|

Riff 2
|----0--------0--------0--------0-----------0--------0---------
|------0--------0--------0--------0-----------1--------1-------
|--------0--------0--------0--------0-----------0--------0-----
|-2--------2--------2--------2--------2--2--------2--------2---
|-2--------------------------------------3---------------------
|-0------------------------------------------------------------

----0--------0--------0--------0-------|
------0--------0--------1--------1-----|
--------0--------0--------0--------0---|
-2--------2--------2--------2----------|
-2-------------------------------------|
-0-------------------------------------|

Riff 3 (main riff)
|--------------------------------|
|----------2--------------0------|
|------------2--------------0----|
|-5-5-4-4------4-5-5-2-2------2--|
|-5-5-4-4--------5-5-2-2---------|
|-3-3-2-2--------3-3-0-0---------|
[ Tab from: http://www.guitartabs.cc/tabs/b/burzum/dunkelheit_tab_ver_2.html ]
Riff 4 x2
|--------------------------------------------------------------|
|----------2--------------5--------------2--------------0------|
|------------2--------------5--------------2--------------0----|
|-5-5-4-4------4-5-5-7-7------7-5-5-4-4------4-5-5-2-2------2--|
|-5-5-4-4--------5-5-7-7--------5-5-4-4--------5-5-2-2---------|
|-3-3-2-2--------3-3-5-5--------3-3-2-2--------3-3-0-0---------|

Fill
|----------------|
|----------------|
|----------------|
|-4----3----2----|
|-4----3----2----|
|-2----1----0----|

SOLO + main riff
         Play 2 times
|---|----------------------------5---8-8-7----|
|-5-|--8-8-7-7---8-8-5-5---8-8-7-----------5--|
|---|-----------------------------------------|
|---|-----------------------------------------|
|---|-----------------------------------------|
|---|-----------------------------------------|

         Play 2 times
|-------------------5----------|
|-7---8-7-8---5---7---8-7-8-5--|
|-----------7------------------|
|------------------------------|
|------------------------------|
|------------------------------|
         Play 2 times
|----------------------------5---8-8-7----|
|--8-8-7-7---8-8-5-5---8-8-7-----------5--|
|-----------------------------------------|
|-----------------------------------------|
|-----------------------------------------|
|-----------------------------------------|

Riff 5 x4
|-----0-------------------------|
|-------0-----1-----0-----1-----|
|---------0-----0-----0-----0---|
|-2---------2-----2-----2-------|
|-2-----------------------------|
|-0-----------------------------|

Riff 6 x4
|----------------|
|----------------|
|-4----5---------|
|-4----5----5----|
|-2----3----5----|
|-----------3----|

Riff 5 x4
Riff 6 x4

Riff 7
|----------------------------|
|----------------------------|
|-------2------------0-------|
|-----4----4-------2----2----|
|---4--------4---2--------2--|
|-2------------0-------------|

END
|----------------|
|----------------|
|----------------|
|-4----3----2----|
|-4----3----2----|
|-2----1----0----|