Burzum - Dunkelheit Chords & Tabs

 

Dunkelheit Chords & Tabs

Burzum Chords & Tabs

Version: 1 Type: Tab 0 ratings
1 star 2 stars 3 stars 4 stars 5 stars
comments

Dunkelheit Tab



Guitar 1 Heavy Distortian
Riff 1
|-----|-----------------|-----------------|
|-----|-------------0---|-----------------|
|-2---|-2---2---2-----1-|-2---2---2---4---|
|-2---|-2-2---2---2-----|-2-2---2---2---3-|
|-0---|-0---------------|-0---------------|
                                    repeat 4 times End in Am5
[ Tab from: http://www.guitartabs.cc/tabs/b/burzum/dunkelheit_tab.html ]
Guitar 2 Light Distortian
Riff 1
|---|--------0-----------0----------|-------0-----------0--------0-|
|---|-----0----0-------0----------0-|-----0---0-------0--------0---|
|---|---2--------2---2----------2---|---2-------2---2--------2-----|
|-2-|-2------------1----------0-----|-2-----------4--------1-------|
|-2-|-----------------------1-------|------------------------------|
|-0-|-------------------------------|------------------------------|
                                                   repeat 4 time end on Am5 


the second guitar part stays thourgh out almos all of the song

(when Night falls) this follows with the synth part
guitar 1
|---------------------------------------|
|---------------------------------------|
|-------------------------------------4-|
|-5-5-4-4---5-5-4-2---5-5-4-4---5-5-4-4-|
|-5-5-4-4---5-5-4-2---5-5-4-4---5-5-4-2-|
|-3-3-2-2---3-3-2-0---3-3-2-2---3-3-2---|

(Suddendly....)
|----------------|
|----------------|
|----------------|
|-5------3--2----|
|-5------3--2----|
|-3------1--0----|

this song has so many tracks its hard to hear cirtin things

hopefully this will hepl you out. just listen to the song to know everything....
Comments