Bury Your Dead - Top Gun Chords & Tabs

 

Top Gun Chords & Tabs

Bury Your Dead Chords & Tabs

Version: 1 Type: Tab 0 ratings
1 star 2 stars 3 stars 4 stars 5 stars
comments

Top Gun Tab

   
Bury Your Dead-Top Gun

Tuning-Drop C


D||------------------------------------------------------------||
A||------------------------------------------------------------|| 
F||------------------------------------------------------------||  
C||------------------------------------------------------------|| 
G||------------------------------------------------------------|| 
C||-0-0-0-0-0-0-0----------------------------------------------||


D||------------------------------------------------------------||
A||------------------------------------------------------------|| 
F||------------------------------------------------------------||  
C||------------------------------------------------------------|| 
G||------------------------------------------------------------|| 
C||-5-4-3-0--5-4-3---------------------------------------------||


D||------------------------------------------------------------||
A||------------------------------------------------------------|| 
F||------------------------------------------------------------||  
C||------------------------------------------------------------|| 
G||-0--0--0-0--1--1--1-1--4--4--4-4--4--4--4-4-----------------|| 
C||-0--0--0-0--1--1--1-1--4--4--4-4--4--4--4-4-----------------||


D||------------------------------------------------------------||
A||------------------------------------------------------------|| 
F||------------------------------------------------------------||  
C||------------------------------------------------------------|| 
G||-5-4-3------------------------------------------------------|| 
C||-5-4-3------------------------------------------------------||


D||------------------------------------------------------------||
A||------------------------------------------------------------|| 
F||------------------------------------------------------------||  
C||------------------------------------------------------------|| 
G||-0--0--0-0--1--1--1-1--------------------------------------|| 
C||-0--0--0-0--1--1--1-1--1/3--0-0-0-0--0-0-0-0----------------||


D||------------------------------------------------------------||
A||------------------------------------------------------------|| 
F||------------------------------------------------------------||  
C||------------------------------------------------------------|| 
G||------------------------------------------------------------|| 
C||-5-4-3------------------------------------------------------||


D||------------------------------------------------------------||
A||------------------------------------------------------------|| 
F||------------------------------------------------------------||  
C||------------------------------------------------------------|| 
G||-0--0--0-0--1--1--1-1--4--4--4-4--4--4--4-4-----------------|| 
C||-0--0--0-0--1--1--1-1--4--4--4-4--4--4--4-4-----------------||


D||------------------------------------------------------------||
A||------------------------------------------------------------|| 
F||------------------------------------------------------------||  
C||------------------------------------------------------------|| 
G||-5-4-3------------------------------------------------------|| 
C||-5-4-3------------------------------------------------------||


D||------------------------------------------------------------||
A||------------------------------------------------------------|| 
F||------------------------------------------------------------||  
C||------------------------------------------------------------|| 
G||-0--0--0-0--1--1--1-1--------------------------------------|| 
C||-0--0--0-0--1--1--1-1--1/3--0-0-0-0--0-0-0-0----------------||


D||------------------------------------------------------------||
A||------------------------------------------------------------|| 
F||------------------------------------------------------------||  
C||------------------------------------------------------------|| 
G||--------0---------------------------------------------------|| 
C||-5-4-3--0---------------------------------------------------||


D||------------------------------------------------------------||
A||------------------------------------------------------------|| 
F||------------------------------------------------------------||  
C||------------------------------------------------------------|| 
G||-x>>>>>---------0-------------------------------------------|| 
C||-x>>>>>--2-3-4--0-------------------------------------------||


D||------------------------------------------------------------||
A||------------------------------------------------------------|| 
F||------------------------------------------------------------||  
C||------------------------------------------------------------|| 
G||-------------------------0----------------------------------|| 
C||-0-0-0-0--0-0-0-0--5-4-3-0----------------------------------||


D||------------------------------------------------------------||
A||------------------------------------------------------------|| 
F||------------------------------------------------------------||  
C||------------------------------------------------------------|| 
G||-x<<<<<---------0-------------------------------------------|| 
C||-x<<<<<--2-3-4--0-------------------------------------------||


D||------------------------------------------------------------||
A||------------------------------------------------------------|| 
F||------------------------------------------------------------||  
C||------------------------------------------------------------|| 
G||------------------------------------------------------------|| 
C||-0-0-0-0--0-0-0-0--5-4-3------------------------------------||


D||------------------------------------------------------------||
A||------------------------------------------------------------|| 
F||------------------------------------------------------------||  
C||------------------------------------------------------------|| 
G||-/5----3----------------------------------------------------|| 
C||-/5----3----------------------------------------------------||


D||------------------------------------------------------------||
A||------------------------------------------------------------|| 
F||------------------------------------------------------------||  
C||------------------------------------------------------------|| 
G||------------------------------------------------------------|| 
C||-0-0--0-0-0-0-0--0-0--0-0----------------------------------||


D||------------------------------------------------------------||
A||------------------------------------------------------------|| 
F||------------------------------------------------------------||  
C||------------------------------------------------------------|| 
G||------------------------------------------------------------|| 
C||-0-0--0-0-0-0--X--X--X--X---------------------------------||
PM                 [,,,,,,,,,,] 

D||------------------------------------------------------------||
A||------------------------------------------------------------|| 
F||------------------------------------------------------------||  
C||------------------------------------------------------------|| 
G||-0-0--0-0--0-0-0--0-0--0-0----------------------------------|| 
C||-0-0--0-0-0-0-0--0-0--0-0----------------------------------||
PM [,,,,,,,,,,,,,,,,,,,,,,,,,]


D||------------------------------------------------------------||
A||------------------------------------------------------------|| 
F||------------------------------------------------------------||  
C||------------------------------------------------------------|| 
G||------------------------------------------------------------|| 
C||-5-4-3------------------------------------------------------||

[ Tab from: http://www.guitartabs.cc/tabs/b/bury_your_dead/top_gun_tab.html ]
D||------------------------------------------------------------||
A||------------------------------------------------------------|| 
F||------------------------------------------------------------||  
C||------------------------------------------------------------|| 
G||-0--0--0-0--1--1--1-1--4--4--4-4--4--4--4-4-----------------|| 
C||-0--0--0-0--1--1--1-1--4--4--4-4--4--4--4-4-----------------||


D||------------------------------------------------------------||
A||------------------------------------------------------------|| 
F||------------------------------------------------------------||  
C||------------------------------------------------------------|| 
G||-5-4-3------------------------------------------------------|| 
C||-5-4-3------------------------------------------------------||


D||------------------------------------------------------------||
A||------------------------------------------------------------|| 
F||------------------------------------------------------------||  
C||------------------------------------------------------------|| 
G||-0--0--0-0--1--1--1-1--------------------------------------|| 
C||-0--0--0-0--1--1--1-1--1/3--0-0-0-0--0-0-0-0----------------||


D||------------------------------------------------------------||
A||------------------------------------------------------------|| 
F||------------------------------------------------------------||  
C||------------------------------------------------------------|| 
G||------------------------------------------------------------|| 
C||-5-4-3------------------------------------------------------||


D||------------------------------------------------------------||
A||------------------------------------------------------------|| 
F||------------------------------------------------------------||  
C||------------------------------------------------------------|| 
G||-0--0--0-0--1--1--1-1--4--4--4-4--4--4--4-4-----------------|| 
C||-0--0--0-0--1--1--1-1--4--4--4-4--4--4--4-4-----------------||


D||------------------------------------------------------------||
A||------------------------------------------------------------|| 
F||------------------------------------------------------------||  
C||------------------------------------------------------------|| 
G||-5-4-3------------------------------------------------------|| 
C||-5-4-3------------------------------------------------------||


D||------------------------------------------------------------||
A||------------------------------------------------------------|| 
F||------------------------------------------------------------||  
C||------------------------------------------------------------|| 
G||-0--0--0-0--1--1--1-1--------------------------------------|| 
C||-0--0--0-0--1--1--1-1--1/3--0-0-0-0--0-0-0-0----------------||


D||------------------------------------------------------------||
A||------------------------------------------------------------|| 
F||------------------------------------------------------------||  
C||------------------------------------------------------------|| 
G||------------------------------------------------------------|| 
C||-5-4-3------------------------------------------------------||


D||------------------------------------------------------------||
A||------------------------------------------------------------|| 
F||------------------------------------------------------------||  
C||------------------------------------------------------------|| 
G||------------------------------------------------------------|| 
C||-0-0-0-0-0-0-0----------------------------------------------||
PM [,,,,,,,,,,,,,]

D||------------------------------------------------------------||
A||------------------------------------------------------------|| 
F||------------------------------------------------------------||  
C||------------------------------------------------------------|| 
G||------------------------------------------------------------|| 
C||-0-0-0-0-0-0-0--0-0-0---0-0-0--0--0--0----------------------||
PM [,,,,,,,,,,,,,,,,,,,,,,,,,,,,,,,,,,,,,,]

D||------------------------------------------------------------||
A||------------------------------------------------------------|| 
F||------------------------------------------------------------||  
C||------------------------------------------------------------|| 
G||------------------------------------------------------------|| 
C||-0-0-0-0-0-0-0--0-0-0---0-0-0--0--0--0--0-------------------||
PM [,,,,,,,,,,,,,,,,,,,,,,,,,,,,,,,,,,,,,,,,,]

D||------------------------------------------------------------||
A||------------------------------------------------------------|| 
F||------------------------------------------------------------||  
C||------------------------------------------------------------|| 
G||------------------------------------------------------------|| 
C||-4-3-2------------------------------------------------------||

D||------------------------------------------------------------||
A||------------------------------------------------------------|| 
F||------------------------------------------------------------||  
C||------------------------------------------------------------|| 
G||------------------------------------------------------------|| 
C||-0-0-0-0-0-0-0--0-0-0---0-0-0--0--0--0----------------------||
PM [,,,,,,,,,,,,,,,,,,,,,,,,,,,,,,,,,,,,,,]

D||------------------------------------------------------------||
A||------------------------------------------------------------|| 
F||------------------------------------------------------------||  
C||------------------------------------------------------------|| 
G||------------------------------------------------------------|| 
C||-0-0-0-0-0-0-0--0-0-0---0-0-0--0--0--0--0-------------------||
PM [,,,,,,,,,,,,,,,,,,,,,,,,,,,,,,,,,,,,,,,,,]

D||------------------------------------------------------------||
A||------------------------------------------------------------|| 
F||------------------------------------------------------------||  
C||------------------------------------------------------------|| 
G||------------------------------------------------------------|| 
C||-4-3-2------------------------------------------------------||


D||------------------------------------------------------------||
A||------------------------------------------------------------|| 
F||------------------------------------------------------------||  
C||------------------------------------------------------------|| 
G||------------------------------------------------------------|| 
C||-0-0--0-0-0-0-0--0-0--0-0----------------------------------||


D||------------------------------------------------------------||
A||------------------------------------------------------------|| 
F||------------------------------------------------------------||  
C||------------------------------------------------------------|| 
G||------------------------------------------------------------|| 
C||-0-0--0-0-0-0--X--X--X--X---------------------------------||
PM                 [,,,,,,,,,,] 

D||------------------------------------------------------------||
A||------------------------------------------------------------|| 
F||------------------------------------------------------------||  
C||------------------------------------------------------------|| 
G||-0-0--0-0--0-0-0--0-0--0-0----------------------------------|| 
C||-0-0--0-0-0-0-0--0-0--0-0----------------------------------||
PM [,,,,,,,,,,,,,,,,,,,,,,,,,]

D||------------------------------------------------------------||
A||------------------------------------------------------------|| 
F||------------------------------------------------------------||  
C||------------------------------------------------------------|| 
G||------------------------------------------------------------|| 
C||-0-0-0-0-0-0-0----------------------------------------------||
Comments