Burnt - Gone Away Chords & Tabs

 

Gone Away Chords & Tabs

Burnt Chords & Tabs

Version: 2 Type: Tab 0 ratings
1 star 2 stars 3 stars 4 stars 5 stars
comments

Gone Away Tab

Burnt
I have no clue what the name of this song is so i'll just say...
"Gone Away"
Album-Unreleased
Tabbed by : Wyatt Gyorkos from Burnt
http://burnt.tripod.ca/index.html


Riff 1 (5x)

e||-------------------------------------------------------------------|
B||-------------------------------------------------------------------|
G||-------------------------------------------------------------------|
D||------11----12-11------------14-------15-14----------11----12-11---|
A||-9--9---9-9--------9--12--12----12-12-------12--9--9---9-9-------9-|
E||-------------------------------------------------------------------|


e||-------------------------------------------------------------------|
B||-------------------------------------------------------------------|
G||-------------------------------------------------------------------|
D||------9---------7--------------------------------------------------|
A||-7--7---7--5--5---5------------------------------------------------|
E||-------------------------------------------------------------------|


Riff 2 (4x)

e||-------------------------------------------------------------------|
B||-------------------------------------------------------------------|
G||------------------7-7-x-x--5--5-5--x-9--7--------------------------|
D||-5--5-5--x-x--x-x-7-7-x-x--5--5-5--x-9--7--------------------------|
A||-5--5-5--x-x--x-x-5-5-x-x--3--3-3--x-7--5--------------------------|
E||-3--3-3--x-x--x-x--------------------------------------------------|


Riff 3 (4x)

e||-------------------------------------------------------------------|
B||-------------------------------------------------------------------|
G||-------------------------------------------------------------------|
D||-------9------9----9--------5-------5---5-------7--------7---7-----|
A||-7--7----7--7----7----3--3----3--3----3----5--5----5--5----5-------|
E||-------------------------------------------------------------------|

[ Tab from: http://www.guitartabs.cc/tabs/b/burnt/gone_away_tab_ver_2.html ]
e||-------------------------------------------------------------------|
B||-------------------------------------------------------------------|
G||-------------------------------------------------------------------|
D||-------------------------------------------------------------------|
A||-------7-----------9-----------------------------------------------|
E||-5--5----5---7--7----7---------------------------------------------|


Riff 2 (4x)

e||-------------------------------------------------------------------|
B||-------------------------------------------------------------------|
G||------------------7-7-x-x--5--5-5--x-9--7--------------------------|
D||-5--5-5--x-x--x-x-7-7-x-x--5--5-5--x-9--7--------------------------|
A||-5--5-5--x-x--x-x-5-5-x-x--3--3-3--x-7--5--------------------------|
E||-3--3-3--x-x--x-x--------------------------------------------------|


Riff 1 (2x)

e||-------------------------------------------------------------------|
B||-------------------------------------------------------------------|
G||-------------------------------------------------------------------|
D||------11----12-11------------14-------15-14----------11----12-11---|
A||-9--9---9-9--------9--12--12----12-12-------12--9--9---9-9-------9-|
E||-------------------------------------------------------------------|


e||-------------------------------------------------------------------|
B||-------------------------------------------------------------------|
G||-------------------------------------------------------------------|
D||------9---------7--------------------------------------------------|
A||-7--7---7--5--5---5------------------------------------------------|
E||-------------------------------------------------------------------|

Hey all I wrote this from memory so there may be a couple errors. Also
be sure to check out our web site http://burnt.tripod.ca/index.html and
sign up for our mailing list please. And be sure to check out a buddies
band @ www.shortround.net
Comments