Burning Tree Projekt - Today Chords & Tabs

 

Today Chords & Tabs

Burning Tree Projekt Chords & Tabs

Version: 1 Type: Tab 0 ratings
1 star 2 stars 3 stars 4 stars 5 stars
comments

Today Tab

---------------------------------------------------------------------
                  "Today" - Burning Tree Projekt
---------------------------------------------------------------------

Tabbed by: Justin RiRaY 
Email: Pakman7JR@hotmail.com           AIM: BeatPwner

     This song is so beautiful! ITS FOR J^2 to perform!

Tuning: eBGDAE



          *** GUITAR 1 ***

     PRE-VERSE / VERSE

e|----0--0----0--0----0--0----0--0---|   PER-VERSE
B|----0--0----0--0----0--0----0--0---|      X2
G|-----------------------------------|
D|-----------------------------------|
A|--4---4---0---0---4---4---0---0----|     VERSE
E|-----------------------------------|      X4


     PRE-CHORUS

e|---0------0------0------0------|
B|---0------0------0------0------|
G|-- 4 ~ -- 6 ~ -- 2 ~ -- 2 ~ ---|   X4
D|-- 4 ~ -- 6 ~ -- 2 ~ -- 2 ~ ---|
A|-- 2 ~ -- 4 ~ -- 0 ~ -- 0 ~ ---|
E|-------------------------------|


     CHORUS

e|--0---0--0----0----0-----|
B|--0---0--0----0----0-----|
G|--9---8--6----4----2-----|   X4
D|--9---9--6----4----2-----|
A|--7---6--4----2----0-----|
E|-------------------------|


     BRIDGE

e|-------------------|
B|-------------------|
G|---6>---2>---------|
D|---6>---2>---------|     X4
A|---4>---0>---------|
E|-------------------|

e|---0>---0>---------|
B|---0>---0>---------|
G|---6>---2>---------|
D|---6>---2>---------|     X4
A|---4>---0>---------|
E|-------------------|


     OUTRO

e|------0-----0----0-0------0-0------0-0----0-----0-0----0----|
B|-----0-----0----0---0----0---0-----0--0----0----0--0----0---|
G|----9-----8----6--------4---------2-----2---2--2-----2---2--|
D|---9-----9----6--------4------4---2-----2------2-----2------|   X2
A|--7-----6----4--------2----------0------0-----0------0------|
E|------------------------------------------------------------|





          *** GUITAR 2 ***

     INTRO
[ Tab from: http://www.guitartabs.cc/tabs/b/burning_tree_projekt/today_tab.html ]
e|-----12----12----11----11-----9---------|
B|--12----12----12----12----12-------12---|
G|--------------------------------9-----9-|  X2
D|----------------------------------------|
A|----------------------------------------|
E|----------------------------------------|


     VERSE

e|--------16--16-------16--16-------16--16-------16--16--|
B|------14--14-------14--14-------14--14-------14--14----|
G|-------------------------------------------------------|   X4
D|-------------------------------------------------------|
A|-------------------------------------------------------|
E|-------------------------------------------------------|


     PRE-CHORUS (I wasn't sure about this, so I made it up)

e|---777-777-7777-777-7777-77---5555-5555-55-5555-5555-5--|
B|--------------------------------------------------------|
G|--------------------------------------------------------|   X4
D|--------------------------------------------------------|
A|--------------------------------------------------------|
E|--------------------------------------------------------|


     CHORUS 

e|----------19---19--------14---19--------19---19--------14---19-----|
B|-------------------------------------------------------------------|
G|-------------------------------------------------------------------|
D|-------------------------------------------------------------------|
A|-------------------------------------------------------------------|
E|-------------------------------------------------------------------|


| ~  vibrato
| >  keep strumming



"TODAY"

VERSE:
I've listened to the words you have to say
They ring inside my empty head and stay
I've stumbled on the shadow of your doubt
Becoming something you can do without

PRE-CHORUS:
We go our separate ways
Today you went away
Blow out the burning flame
Cause you don't feel the same anymore

CHORUS:
Endless days and nights we spend together
Every memory will you remember always
All the times I wish would last forever
Echos in my head
I wished you'd never gone away

Today.. Today

VERSE 2:
So this is all I really have to say
The words inside my heart just run away
I'm surrounded by this never-ending rain
Caught beneath the glass of picture frames

OUTRO:
So this is my way of letting go 

=====================================================================
Comments