Burning Tree Projekt - Smile Acoustic Chords & Tabs

 

Smile Acoustic Chords & Tabs

Burning Tree Projekt Chords & Tabs

Version: 1 Type: Tab 0 ratings
1 star 2 stars 3 stars 4 stars 5 stars
comments

Smile Acoustic Tab

--------------------------------------------------------------------
		    Smile - Burning Tree Projekt
--------------------------------------------------------------------

Tabbed by: Justin RiRaY       California baby! home of sexiness =D
Email:  Pakman7JR@hotmail.com

Tuning: Standard ( EADGBe )

     This song is awesome, I can't find the lyrics, or tabs 
anywhere... soo I did my best to tab this. it sounds really easy, 
but, the little deatails are hard to catch. It is too hard to 
show the rythym, so you can figure it out yourself. I can't 
really tell the parts of the song (verse, chorus). So I wrote 
the lyrics with them.




     INTRO

e|----0-------0-------0-------0------------------------------------|
B|----0-------0-------0-------0------------------------------------|
G|----4-------6-------1-------2------------------------------------|
D|----2-------2-------2-------2------------------------------------|
A|-----------------------------------------------------------------|
E|-----------------------------------------------------------------|


     VERSE     

e|----0-------0-------0-------0------------------------------------|
B|----0-------0-------0-------0------------------------------------|
G|----4-------6-------4-------6------------------------------------|
D|----2-------2-------2-------2------------------------------------|
A|-----------------------------------------------------------------|
E|-----------------------------------------------------------------|
  Stay with me ... look in my eyes.

e|----0-------0-------0--------------------------------------------|
B|----0-------0-------0--------------------------------------------|
G|----x-------x-------x--------------------------------------------|
D|----6-------4-------2--------------------------------------------|
A|----4-------2-------0--------------------------------------------|
E|-----------------------------------------------------------------|
  I've waited for lifetimes to say.

e|----0-------0-------0--------------------------------------------|
B|----0-------0-------0--------------------------------------------|
G|----x-------x-------x--------------------------------------------|
D|----6-------4-------2--------------------------------------------|
A|----4-------2-------0--------------------------------------------|
E|-----------------------------------------------------------------|
  I shake just to say how I feel.


     VERSE 2

e|----0-------0-------0-------0------------------------------------|
B|----0-------0-------0-------0------------------------------------|
G|----4-------6-------4-------6------------------------------------|
D|----2-------2-------2-------2------------------------------------|
A|-----------------------------------------------------------------|
E|-----------------------------------------------------------------|
  Seconds pass ... in our hour glass.

e|----0-------0-------0--------------------------------------------|
B|----0-------0-------0--------------------------------------------|
G|----x-------x-------x--------------------------------------------|
D|----6-------4-------2--------------------------------------------|
A|----4-------2-------0--------------------------------------------|
E|-----------------------------------------------------------------|
  I'm searching for right words to say.


e|----0-------0-------0-------------0------------------------------|
B|----0-------0-------0-------------0------------------------------|
G|----x-------x-------x-------------x------------------------------|
D|----6-------4-------2-------------2------------------------------|
A|----4-------2-------0-------------0------------------------------|
E|-----------------------------------------------------------------|
  The words I catch just slip away.


      PRE-CHORUS

e|----0-------0-------0--------------------------------------------|
B|----0-------0-------0--------------------------------------------|
G|----x-------x-------x--------------------------------------------|
D|----6-------2-------4--------------------------------------------|
A|----4-------0-------2--------------------------------------------|
E|-----------------------------------------------------------------|
  With you the world fades away.

e|----------------0------------------------------------------------|
B|----------------0------------------------------------------------|
G|-----4----------x------------------------------------------------|
D|-----2----------2------------------------------------------------|
A|-----2----------0------------------------------------------------|
E|-----------------------------------------------------------------|
  A moment that time can't erase.

e|----0-------0-------0--------------------------------------------|
B|----0-------0-------0--------------------------------------------|
G|----x-------x-------x--------------------------------------------|
D|----2-------6-------4--------------------------------------------|
A|----0-------4-------2--------------------------------------------|
E|-----------------------------------------------------------------|
  I'm caught between distance and space.

e|-----0-----------0-----------------------------------------------|
B|-----0-----------0-----------------------------------------------|
G|-----4-----------8-----------------------------------------------|
D|-----2-----------4-----------------------------------------------|
A|-----------------------------------------------------------------|
E|-----------------------------------------------------------------|
  You're all I know ... what I want.


     CHORUS

e|-----0------0-------0-------0------------------------------------|
B|-----0------0-------0-------0------------------------------------|
G|-----4------x-------x-------x------------------------------------|
D|-----2------4-------6-------2------------------------------------|
A|------------2-------4-------0------------------------------------|
E|-----------------------------------------------------------------|
  I'm falling more in love with you.

e|-----0------0-------0-------0------------------------------------|
B|-----0------0-------0-------0------------------------------------|
G|-----4------x-------x-------x------------------------------------|
D|-----2------4-------6-------2------------------------------------|
A|------------2-------4-------0------------------------------------|
E|-----------------------------------------------------------------|
  My heart stands still till you make it move.

e|----0-------------0-------0--------------------------------------|
B|----0-------------0-------0--------------------------------------|
G|----4-------------x-------x--------------------------------------|
D|----2-------------4-------2--------------------------------------|
A|------------------2-------0--------------------------------------|
E|-----------------------------------------------------------------|
  Will time . . . take us away?

e|----0-------------0-------0--------------------------------------|
B|----0-------------0-------0--------------------------------------|
G|----4-------------x-------x--------------------------------------|
D|----2-------------4-------2--------------------------------------|
A|------------------2-------0--------------------------------------|
E|-----------------------------------------------------------------|
  Just smile . . . say its ok.


     VERSE 3
[ Tab from: http://www.guitartabs.cc/tabs/b/burning_tree_projekt/smile_acoustic_tab.html ]
e|----0-------0-------0-------0------------------------------------|
B|----0-------0-------0-------0------------------------------------|
G|----4-------6-------4-------6------------------------------------|
D|----2-------2-------2-------2------------------------------------|
A|-----------------------------------------------------------------|
E|-----------------------------------------------------------------|
  Stare into . . . what our words can do.

e|----0-------0-------0--------------------------------------------|
B|----0-------0-------0--------------------------------------------|
G|----x-------x-------x--------------------------------------------|
D|----6-------4-------2--------------------------------------------|
A|----4-------2-------0--------------------------------------------|
E|-----------------------------------------------------------------|
  I'm clueless of which words to choose.

e|----0-------0-------0--------------------------------------------|
B|----0-------0-------0--------------------------------------------|
G|----x-------x-------x--------------------------------------------|
D|----6-------4-------2--------------------------------------------|
A|----4-------2-------0--------------------------------------------|
E|-----------------------------------------------------------------|
  I'd give my wolrd to see it through.


     VERSE 4

e|----0-------0-------0-------0------------------------------------|
B|----0-------0-------0-------0------------------------------------|
G|----4-------6-------4-------6------------------------------------|
D|----2-------2-------2-------2------------------------------------|
A|-----------------------------------------------------------------|
E|-----------------------------------------------------------------|
  My ocean tides . . . or desert skies.

e|----0-------0-------0--------------------------------------------|
B|----0-------0-------0--------------------------------------------|
G|----x-------x-------x--------------------------------------------|
D|----6-------4-------2--------------------------------------------|
A|----4-------2-------0--------------------------------------------|
E|-----------------------------------------------------------------|
  Can stand between my faith in you.

e|----0-------0-------0------------------0-------------------------|
B|----0-------0-------0------------------0-------------------------|
G|----x-------x-------x------------------x-------------------------|
D|----6-------4-------2------------------2-------------------------|
A|----4-------2-------0------------------0-------------------------|
E|-----------------------------------------------------------------|
  I'd give my life to be with you.


     PRE-CHORUS

e|----0-------0-------0--------------------------------------------|
B|----0-------0-------0--------------------------------------------|
G|----x-------x-------x--------------------------------------------|
D|----6-------2-------4--------------------------------------------|
A|----4-------0-------2--------------------------------------------|
E|-----------------------------------------------------------------|
  With you the world fades away.

e|----------------0------------------------------------------------|
B|----------------0------------------------------------------------|
G|-----4----------x------------------------------------------------|
D|-----2----------2------------------------------------------------|
A|-----2----------0------------------------------------------------|
E|-----------------------------------------------------------------|
  A moment that time can't erase.

e|----0-------0-------0--------------------------------------------|
B|----0-------0-------0--------------------------------------------|
G|----x-------x-------x--------------------------------------------|
D|----2-------6-------4--------------------------------------------|
A|----0-------4-------2--------------------------------------------|
E|-----------------------------------------------------------------|
  I'm caught between distance and space.

e|-----0-----------0-----------------------------------------------|
B|-----0-----------0-----------------------------------------------|
G|-----4-----------8-----------------------------------------------|
D|-----2-----------4-----------------------------------------------|
A|-----------------------------------------------------------------|
E|-----------------------------------------------------------------|
  You're all I know ... what I want.


     FINAL CHORUS

e|-----0------0-------0-------0------------------------------------|
B|-----0------0-------0-------0------------------------------------|
G|-----4------x-------x-------x------------------------------------|
D|-----2------4-------6-------2------------------------------------|
A|------------2-------4-------0------------------------------------|
E|-----------------------------------------------------------------|
  I'm falling more in love with you.

e|-----0------0-------0-------0------------------------------------|
B|-----0------0-------0-------0------------------------------------|
G|-----4------x-------x-------x------------------------------------|
D|-----2------4-------6-------2------------------------------------|
A|------------2-------4-------0------------------------------------|
E|-----------------------------------------------------------------|
  My heart stands still till you make it move.

e|----0-------------0-------0--------------------------------------|
B|----0-------------0-------0--------------------------------------|
G|----4-------------x-------x--------------------------------------|
D|----2-------------4-------2--------------------------------------|
A|------------------2-------0--------------------------------------|
E|-----------------------------------------------------------------|
  Will time . . . take us away?

e|----0-------------0-------0--------------------------------------|
B|----0-------------0-------0--------------------------------------|
G|----4-------------x-------x--------------------------------------|
D|----2-------------4-------2--------------------------------------|
A|------------------2-------0--------------------------------------|
E|-----------------------------------------------------------------|
  Just smile . . . say its ok.


     OUTRO

e|----0-------------0-------0--------------------------------------|
B|----0-------------0-------0--------------------------------------|
G|----4-------------x-------x--------------------------------------|
D|----2-------------4-------2--------------------------------------|
A|------------------2-------0--------------------------------------|
E|-----------------------------------------------------------------|
  Time . . . don't take us away.

e|----0-------------0-------0~ ------------------------------------|
B|----0-------------0-------0~ ------------------------------------|
G|----4-------------x-------x~ ------------------------------------|
D|----2-------------4-------2~ ------------------------------------|
A|------------------2-------0~ ------------------------------------|
E|-----------------------------------------------------------------|
  I'll smile . . . and say its ok. . .


     I hope you guys enjoy playing this song... play it for 
your girlfriend =D  She most likely won't know this song, haha.
So you can surprise her and tell her you wrote it for her. jk

===================================================================
Comments