Burning Tree Projekt - Serenade No 5 Chords & Tabs

 

Serenade No 5 Chords & Tabs

Burning Tree Projekt Chords & Tabs

Version: 1 Type: Tab 0 ratings
1 star 2 stars 3 stars 4 stars 5 stars
comments

Serenade No 5 Tab

   
----------------------------------------------------------------------------
		"Serenade no 5" - Burning Tree Projekt

                  http://www.burningtreeprojekt.com
         http://www.purevolume.com/burningtreeprojekt/music
----------------------------------------------------------------------------

Tabbed by: Justin Riray (RiRaY)    California baby! home of sexiness =D
Email: Pakman7JR@hotmail.com

     This is my 2nd tab. I really like this band, but no one else seems to 
know about them. So, I'm trying to share their music with you =D

Tuning: DADGBe


     INTRO

e|------------------------------------------------------------------------|
B|---------------------------------------------------------------------   |
G|-----4-------4--------4-------4--------4-------4------5---4--------- X2 |
D|-5-5---5-5-5---5--7-5---5-7-5---5--5-5---5-5-5---5--5---5---5-5-6-5-   -|
A|------------------------------------------------------------------------|
D|------------------------------------------------------------------------|

e|------------------------------------------------------------------------|
B|------------------------------------------------------------------------|
G|00000000-22222222-44444444-55554444--00000000-22222222-0000000000000000-|
D|------------------------------------------------------------------------|
A|------------------------------------------------------------------------|
D|------------------------------------------------------------------------|


     VERSE

e|-----1010--------1010--------1010----------1010-------------------------|
B|---88----88----88----88----88----88------88----88-----------------------|
G|-------------------------99----------1111-------------------------------|
D|-55----------55-------------------(eleven x2)----------------   --------|
A|------------------------------------------------------------    --------|
D|------------------------------------------------------------    --------|
                                                                X2
e|-----1010--------1010--------77-----------------------------    --------|
B|---88----88----88----88----88--88----1010-1212-1010---------    --------|
G|-99----------99----------55--------77-----------------------   ---------|
D|------------------------------------------------------------------------|
A|----------------------------------(tenx2 twelvex2 tenx2)----------------|
D|------------------------------------------------------------------------|


     PRE-CHORUS
[ Tab from: http://www.guitartabs.cc/tabs/b/burning_tree_projekt/serenade_no_5_tab.html ]
e|------------------------------------------------------------------------|
B|------------------------------------------------------------------------|
G|------------------------------------------------------------------------|
D|-55555555-77777777-99999999-101010109999----   -------------------------|
A|-------------------------------------------    -------------------------|
D|-------------------------------------------    -------------------------|
                                               X2
e|-------------------------------------------    -------------------------|
B|-------------------------------------------    -------------------------|
G|-------------------------------------------   --------------------------|
D|-55555555-77777777-55555555-55555555------------------------------------|
A|------------------------------------------------------------------------|
D|------------------------------------------------------------------------|


     CHORUS

e|------------------------------------------------------------------------|
B|-----------------------------------------55-55-77-77-88-88-77-77---   --|
G|------------------------------------------------------------------    --|
D|-4h5p-4h5p-4h5p-4h5p-4h5p-4h5p-4h5p-4hp5-------------------------- X2 --|
A|------------------------------------------------------------------    --|
D|------------------------------------------------------------------   ---|


     ~VERSE 2
     ~PRE-CHORUS 2
     ~CHORUS 2

     
     BRIDGE

e|------------------------------------------------------------------------|
B|------------------------------------------------------------------------|
G|- 4 -- 5 -- 7 ----------------   ---------------------------------------|
D|- 4 -- 5 -- 7 --5-5-5-5------ X4 ---------------------------------------|
A|- 2 -- 3 -- 5 --5-5-5-5------   ----------------------------------------|
D|----------------5-5-5-5-------------------------------------------------|


     CHORUS 3 (Outro)

e|------------------------------------------------------------------------|
B|---------------------------------------55-55-77-77-88-88-77-77--   -----|
G|---------------------------------------------------------------    -----|
D|4h5p-4h5p-4h5p-4h5p-4h5p-4h5p-4h5p-4hp5------------------------ X2 - 5~ |
A|---------------------------------------------------------------    - 5~ |
D|---------------------------------------------------------------   -- 5~ |
                                                                    end on

| h  hammer-on
| p  pull-off
| ~  vibrato
============================================================================
Comments