Burning Spear - S O U L Chords & Tabs

 

S O U L Chords & Tabs

Burning Spear Chords & Tabs

Version: 1 Type: Bass Tab 0 ratings
1 star 2 stars 3 stars 4 stars 5 stars
comments

S O U L Bass Tab

S.O.U.L. - Burning Spear 
==========================================
Tabbed by Dara Canny 

I didn't bother tabbing out the timing so listen to the 
track and figure it out , its pretty easy. Any comments or requests , email me. 

Standard Tuning 

G |-----------------|
D |---5-7-7-5-5-----|	(Intro)
A |-7-----------7---|
E |---------------5-|
[ Tab from: http://www.guitartabs.cc/tabs/b/burning_spear/s_o_u_l_btab.html ]
G |-----------------------------|
D |---5-7-7-5-5-----------------|   (Verse 1)
A |-7-----------7-----3-5-3-5-5-|
E |---------------5-5-----------|

G |---------------------------------|
D |---------------------------------|	(Verse 2)
A |-------------4-4-5-5-5-7-7-7-5---|
E |-5-5-7-7-8-8-------------------7-|

G |----------------6---7-7-----------|
D |---7---9---10---------------------|	(One of the variations in 
A |--------------4---5-----7-7-7-5---|	  verse 2)
E |-5---7---8----------------------7-|

Comments