Burning Heads - Sos Chords & Tabs

 

Sos Chords & Tabs

Burning Heads Chords & Tabs

Version: 1 Type: Tab 0 ratings
1 star 2 stars 3 stars 4 stars 5 stars
comments

Sos Tab

2X
-------------------------------------------------------------------------------------------------------------
-------------------------------------------------------------------------------------------------------------
-------------------------------------------------------------------------------------------------------------
-4--7-7-7--2---9-9-9--4---7-7-7--7-5-9-----------------------------------------------------------------------
-4--7-7-7--2---9-9-9--4---7-7-7--7-2-9-----------------------------------------------------------------------
-2--5-5-5--0---7-7-7--2---5-5-5--5-0-7-----------------------------------------------------------------------

3X
-------------------------------------------------------------------------------------------------------------
-------------------------------------------------------------------------------------------------------------
-------------------------9-9-9-9-----------------------------------------------------------------------------
-4-4-4-4-4-4-4-4-7-7-7-7-9-9-9-9-----------------------------------------------------------------------------
-4-4-4-4-4-4-4-4-7-7-7-7-7-7-7-7-----------------------------------------------------------------------------
-2-2-2-2-2-2-2-2-5-5-5-5-------------------------------------------------------------------------------------

-------------------------------------------------------------------------------------------------------------
-------------------------------------------------------------------------------------------------------------
-------------------------------------------------------------------------------------------------------------
-4-4-4-4-4-4-4-4-4-4-4-4-4-4-4-4-----------------------------------------------------------------------------
-4-4-4-4-4-4-4-4-4-4-4-4-4-4-4-4-----------------------------------------------------------------------------
-2-2-2-2-2-2-2-2-2-2-2-2-2-2-2-2-----------------------------------------------------------------------------
2X
-------------------------------------------------------------------------------------------------------------
-------------------------------------------------------------------------------------------------------------
-------------------------9-9-9-9-----------------------------------------------------------------------------
-4-4-4-4-4-4-4-4-7-7-7-7-9-9-9-9-----------------------------------------------------------------------------
-4-4-4-4-4-4-4-4-7-7-7-7-7-7-7-7-----------------------------------------------------------------------------
-2-2-2-2-2-2-2-2-5-5-5-5-------------------------------------------------------------------------------------

2X
-------------------------------------------------------------------------------------------------------------
-------------------------------------------------------------------------------------------------------------
---------7-7-7-7---------9-9-9-9-----------------------------------------------------------------------------
-4-4-4-4-7-7-7-7-7-7-7-7-9-9-9-9-----------------------------------------------------------------------------
-4-4-4-4-5-5-5-5-7-7-7-7-7-7-7-7-----------------------------------------------------------------------------
-2-2-2-2---------5-5-5-5-------------------------------------------------------------------------------------

--------------------------------------------------------------------------------------------------------
------------14------------------------------------------------------------------------------------------
---------------14-11------------------------------------------------------------------------------------
--4-----------------------------------------------------------------------------------------------------
--4-----------------------------------------------------------------------------------------------------
--2-----------------------------------------------------------------------------------------------------

4X
-------------------------------------------------------------------------------------------------------------
-------------------------------------------------------------------------------------------------------------
-----------------7-7-7-7-------------------------------------------------------------------------------------
-4-4-4-4-7-7-7-7-7-7-7-7-9-9-9-9-----------------------------------------------------------------------------
-4-4-4-4-7-7-7-7-5-5-5-5-9-9-9-9-----------------------------------------------------------------------------
-2-2-2-2-5-5-5-5---------7-7-7-7-----------------------------------------------------------------------------

2X
-------------------------------------------------------------------------------------------------------------
-------------------------------------------------------------------------------------------------------------
-------------------------------------------------------------------------------------------------------------
-4--7-7-7--2---9-9-9--4---7-7-7--7-5-9-----------------------------------------------------------------------
-4--7-7-7--2---9-9-9--4---7-7-7--7-2-9-----------------------------------------------------------------------
-2--5-5-5--0---7-7-7--2---5-5-5--5-0-7-----------------------------------------------------------------------
[ Tab from: http://www.guitartabs.cc/tabs/b/burning_heads/sos_tab.html ]
3X
-------------------------------------------------------------------------------------------------------------
-------------------------------------------------------------------------------------------------------------
-------------------------9-9-9-9-----------------------------------------------------------------------------
-4-4-4-4-4-4-4-4-7-7-7-7-9-9-9-9-----------------------------------------------------------------------------
-4-4-4-4-4-4-4-4-7-7-7-7-7-7-7-7-----------------------------------------------------------------------------
-2-2-2-2-2-2-2-2-5-5-5-5-------------------------------------------------------------------------------------

-----------------------------------------------------------------------------------------------------------
-----------------------------------------------------------------------------------------------------------
---------9-9-9-9-7-7-7-7-7---------------------------------------------------------------------------------
-4-4-4-4-9-9-9-9-7-7-7-7-7---------------------------------------------------------------------------------
-4-4-4-4-7-7-7-7-5-5-5-5-5---------------------------------------------------------------------------------
-2-2-2-2---------------------------------------------------------------------------------------------------

4X
-------------------------------------------------------------------------------------------------------------
-------------------------------------------------------------------------------------------------------------
-----------------7-7-7-7-------------------------------------------------------------------------------------
-4-4-4-4-7-7-7-7-7-7-7-7-9-9-9-9-----------------------------------------------------------------------------
-4-4-4-4-7-7-7-7-5-5-5-5-9-9-9-9-----------------------------------------------------------------------------
-2-2-2-2-5-5-5-5---------7-7-7-7-----------------------------------------------------------------------------

-------------------------------------------------------------------------------------------------------------
-------------------------------------------------------------------------------------------------------------
-------------------------------------------------------------------------------------------------------------
-4-4-4-4-4-4-4-4-4-4-4-4-4-4-4-4-----------------------------------------------------------------------------
-4-4-4-4-4-4-4-4-4-4-4-4-4-4-4-4-----------------------------------------------------------------------------
-2-2-2-2-2-2-2-2-2-2-2-2-2-2-2-2-----------------------------------------------------------------------------

------------------------------------------------------------------------------------------------------
------------------------------------------------------------------------------------------------------
-9--11--7---9--11-------7-7-7-7-7-7-7-7-7-7-7-7-7-7-7-7--9-9-9-7-7-7-7-7-9-9-9------------------------
-9--11--7---9--11--11---7-7-7-7-7-7-7-7-7-7-7-7-7-7-7-7--9-9-9-7-7-7-7-7-9-9-9-11-11-11-11-11---------
-7--9---5---7--9---11---5-5-5-5-5-5-5-5-5-5-5-5-5-5-5-5--7-7-7-5-5-5-5-5-7-7-7-11-11-11-11-11---------
-------------------9-----------------------------------------------------------9--9--9--9--9----------

------------------------------------------------------------------------------------------------------------------
------------------------------------------------------------------------------------------------------------------
-9--11--7---9--11-------11-11-11-11-11-11-11-11-11-11-11-11-11-14-14-14-14-14-14-14-14-13-13-13-13-13-13-13-13----
-9--11--7---9--11--11---11-11-11-11-11-11-11-11-11-11-11-11-11-14-14-14-14-14-14-14-14-13-13-13-13-13-13-13-13----
-7--9---5---7--9---11---9--9--9--9--9--9--9--9--9--9--9--9--9--12-12-12-12-12-12-12-12-11-11-11-11-11-11-11-11----
-------------------9----------------------------------------------------------------------------------------------

------------------------------------------------------------------------------------------------------
------------------------------------------------------------------------------------------------------
-9--11-11--9--11-11--9--11-11--9--11-11---------------------------------------------------------------
-9--11-11--9--11-11--9--11-11--9--11-11---------------------------------------------------------------
-7--11-11--7--9--9---7--9--9---7--9--9----------------------------------------------------------------
------------------------------------------------------------------------------------------------------

------------------------------------------------------------------------------------------------------------
------------------------------------------------------------------------------------------------------------
------------------------------------------------------------------------------------------------------------
-4-4-4-4-4-4-4-4-4-4-4-4-4-4-4-4----------------------------------------------------------------------------
-4-4-4-4-4-4-4-4-4-4-4-4-4-4-4-4----------------------------------------------------------------------------
-2-2-2-2-2-2-2-2-2-2-2-2-2-2-2-2----------------------------------------------------------------------------

4X
--------------------------------------------------------------------------------------
--------------------------------------------------------------------------------------
-----------------7-7-7-7--------------------------------------------------------------
-4-4-4-4-7-7-7-7-7-7-7-7-9-9-9-9------------------------------------------------------
-4-4-4-4-7-7-7-7-5-5-5-5-9-9-9-9------------------------------------------------------
-2-2-2-2-5-5-5-5---------7-7-7-7------------------------------------------------------

------------------------------------------
------------------------------------------
------------------------------------------
-4--7-7-7--2---9-9-9--4---7-7-7--7-5-9----
-4--7-7-7--2---9-9-9--4---7-7-7--7-2-9----
-2--5-5-5--0---7-7-7--2---5-5-5--5-0-7----
Comments