Burning Dawn - What Has The World Come To Chords & Tabs

 

What Has The World Come To Chords & Tabs

Burning Dawn Chords & Tabs

Version: 1 Type: Tab 0 ratings
1 star 2 stars 3 stars 4 stars 5 stars
comments

What Has The World Come To Tab

band: burning dawn
song: what has the world come to
v=down pick
u=up pick

intro
---------0----1--0-----------------------------------------------------------0--1--0-----------------------------------------
---1--4--1----------3------------0--1--------------------------------1---4---1----------3-----------0----1---0---------------
2--2-----2----------4--4------2-----2---2--2--1--2----1----0-----2---2-------2----------4---4-----2------2------2---1--------
---2-----2----------5------0--------3------3--2--3----0-------2------2-------2----------5-------0--------3----------0---4----
---------------------------2--------------------------2-----------------------------------------2-------------------2--------
---------------------------3--------------------------------------------------------------------3----------------------------



------------------------0---3-----3---2--0------------------------------------------------3----3---2--0------------------------------
---------------------1------5-----5----------3------------0-1-----------------------------5----5-----------3-------------0-1---------
1--2-------------2----------5-----5----------4--4-------2---2---2--2---1---3-----1--------5----5-----------4---4-------2---2--------
------2--------2-----------------------------5------0-------3------3---2---4--1----2-----------------------5-------0-------3---------
---------3--0---------------------------------------2-------------------------0------------------------------------2------------------
----------------------------------------------------3-------------------------2------------------------------------3------------------
[ Tab from: http://www.guitartabs.cc/tabs/b/burning_dawn/what_has_the_world_come_to_tab.html ]
------------------------------------0---5---8---12--10--12--10--8--10--8--7--8--7----5---------------
0--------------------------------1---------------------------------------------------5---------------
---2---1-------1-2-----------2-------------------------------------------------------5----------------
-------0---4-------2------2----------------------------------------------------------7---------------
-------2--------------3-0-----------------------------------------------------------------------------------
------------------------------------------------------------------------------------------------------------


verse
v   v  u    v   v  u  and repeat this pattern
--------------------------------------------------------------------3-----3-----------------
------------1---1--1---1---1--1---3---3--3--------------1---1---1---5-----5-----------------repeat four times
------------2---2--2---2---2--2---4---4--4---1---1--1---2---2---2---5-----5-----------------
0---0--0----2---2--2---3---3--3---5---5--5---0---0--0---2---2---2----------------------------in each verse
2---2--2-------------------------------------2---2--2-----------------------------------------
3---3--3-------------------------------------------------------------------------------------------

chorus

4------6------4--4--4--4----------------------------------------- repeat about 8 to 10 times
4------6------4--4--4--4------------------------------------------
6------8------6--6--6--6-----------------------------------------
6------8------6--6--6--6-----8--8--8--8--8--8--8-----------------
4------6------4--4--4--4-----8--8--8--8--8--8--8--------------------
-----------------------------6--6--6--6--6--6--6----------------


drums      intro    verse   bridge(bass)  verse  chorus   verse   bridge   verse   chorus    verse    bridge   verse    chorus    drum solo    chorus
Comments