Burning Dawn - Cut You Down Chords & Tabs

 

Cut You Down Chords & Tabs

Burning Dawn Chords & Tabs

Version: 1 Type: Tab 0 ratings
1 star 2 stars 3 stars 4 stars 5 stars
comments

Cut You Down Tab

Band: Burning Dawn
Song: Cut you down

Intro and the verse
E-------------------------------------------
B-------------------------------------------
G-------------------------------------------
D---------3---3-----------------------------
A-5-3------5--------------------------------
E-------5-------------------------------------

Repeat this a lot of times

Chorus          guitar doesn’t play during last verse
            (4 beats)             (4 beats)          (4 beats)              (4 beats)
E-2-------------------4------------------4-----------------6-------------------
B-2-------------------4------------------4-----------------6-------------------
G-4-------------------6------------------0-----------------0-------------------
D-4-------------------6------------------0-----------------0-------------------
A-2-------------------4------------------3-----------------5-------------------
E-2-------------------4------------------4------------------6-------------------

[ Tab from: http://www.guitartabs.cc/tabs/b/burning_dawn/cut_you_down_tab.html ]
Solo
E-12-12--12-12-12-12-10-10--10-10-10-10-7-7--7-7-7-7-9-9--9-9-9-9
B-10-10--10-10-10-10-10-10--10-10-10-10-9-9--9-9-9-9-7-7--7-7-7-7
G------------------------------------------------------------------------------------------
D-------------------------------------------------------------------------------------------
A-------------------------------------------------------------------------------------------
E-------------------------------------------------------------------------------------------

E-12-12--12-12-12-12-10-10--10-10-10-10-7-7--7-7-7-7-9-9--9-9-9-9
B-10-10--10-10-10-10-10-10--10-10-10-10-9-9--9-9-9-9-7-7--7-7-7-7
G------------------------------------------------------------------------------------------
D-------------------------------------------------------------------------------------------
A-------------------------------------------------------------------------------------------
E-------------------------------------------------------------------------------------------
                                           (let final note ring out)
E-9-9-9-9-9-9-9-9-9-9-9----------------------------------------------------------
B-7-7-7-7-7-7-7-7-7-7-7----------------------------------------------------------
G-------------------------------------------------------------------------------------------
D-------------------------------------------------------------------------------------------
A-------------------------------------------------------------------------------------------
E--------------------------------------------------------------------------------------------

Intro  
Verse
Chorus
Verse
Chorus
Bass solo
Verse
Chorus
Verse
Chorus
Guitar solo
Chorus 
Comments