Burn Chesca Burn - Two Faced Chords & Tabs

 

Two Faced Chords & Tabs

Burn Chesca Burn Chords & Tabs

Version: 1 Type: Tab 0 ratings
1 star 2 stars 3 stars 4 stars 5 stars
comments

Two Faced Tab

---------------------------------------------------------------------
                   "Two Faced" - Burn Chesca Burn

               http://www.myspace.com/burnchescaburn
---------------------------------------------------------------------

Tabbed by: Justin RiRaY 
Email: Pakman7JR@hotmail.com           AIM: BeatPwner

     YEA! Chesca freakin rocks! Umm I hope you guys like her
music =D  cuz I do =D  ooh yea and we're gonna get married =D
Hi Chesca!

Tuning: eBGDAE


     RIFF 1

e|-------------------------------------------------------------------|
B|-------------------------------------------------------------------|
G|-------------------------------------------------------------------|
D|--7-xx-7-x-7-x-7-777------10-xx-10-x-10-x-10-101010-----     ------|
A|--7-xx-7-x-7-x-7-777------10-xx-10-x-10-x-10-101010----      ------|
E|--5-xx-5-x-5-x-5-555------8--xx-8--x-8--x-8--8-8-8-----      ------|
                                                           X6
e|-------------------------------------------------------      ------|
B|-------------------------------------------------------      ------|
G|-------------------------------------------------------     -------|
D|--5-xx-5-x-5-x-5-555------3-3-3333--2-2-2222-----------------------|
A|--5-xx-5-x-5-x-5-555------3-3-3333--2-2-2222-----------------------|
E|--3-xx-3-x-3-x-3-333------1-1-1111--0-0-0000-----------------------|

e|-------------------0-----0-----00----0----0------------------------|
B|--          -------0-----0-----00----0----0------------------------|
G|-- Last One -------1-----1-----11----1----1------------------------|
D|--  End On  ----22-2-2-2-2-2-2-22-22-2-22-2------------------------|
A|--          ----22-2-2-2-2-2-2-22-22-2-22-2------------------------|
E|----------------00-0-0-0-0-0-0-00-00-0-00-0------------------------|


     RIFF 2

e|-------------------------------------------------------------------|
B|-------------------------------------------------------------------|
G|--------------------------10-xx-10-x-10-x-10-101010----------------|
D|--7-xx-7-x-7-x-7-777------10-xx-10-x-10-x-10-101010-----     ------|
A|--7-xx-7-x-7-x-7-777------8--xx-8--x-8--x-8--8-8-8-----      ------|
E|--5-xx-5-x-5-x-5-555-----------------------------------      ------|
                                                           X4
e|-------------------------------------------------------      ------|
B|-------------------------------------------------------      ------|
G|--5-xx-5-x-5-x-5-555-----------------------------------     -------|
D|--5-xx-5-x-5-x-5-555------5-5-5555--33-33222-----------------------|
A|--3-xx-3-x-3-x-3-333------5-5-5555--33-33222-----------------------|
E|--------------------------3-3-3333--11-11000-----------------------|
[ Tab from: http://www.guitartabs.cc/tabs/b/burn_chesca_burn/two_faced_tab.html ]
e|-------------------------------------------------------------------|
B|--          -------------------------------------------------------|
G|-- Last One -------------------------------------------------------|
D|--  End On  ---7-7777-7-7777-7-xx-7-7777-7-7777-7x-----------------|
A|--          ---7-7777-7-7777-7-xx-7-7777-7-7777-7x-----------------|
E|---------------5-5555-5-5555-5-xx-5-5555-5-5555-5x-----------------|

          ~RIFF 1 (X4) + ending

          ~RIFF 2 (X4)


     RIFF 3

e|--0---00-----00----------------------------------------------------|
B|--0---00-----00----------------------------------------------------|
G|--0---00-----00----------------------------------------------------|
D|--7-7-77-7-7-7777----5-5-55-5-5-5555--------     ------------------|
A|--7-7-77-7-7-7777----5-5-55-5-5-5555-------      ------------------|
E|--5-5-55-5-5-5555----3-3-33-3-3-3333-------      ------------------|
     play softly        softly                 X2

e|-------------------------------------------      ------------------|
B|-------------------------------------------     -------------------|
G|--5-5-55-5-5-5555--7x-xxxx-7x-xxxx-7x------------------------------|
D|--5-5-55-5-5-5555--7x-xxxx-7x-xxxx-7x------------------------------|
A|--3-3-33-3-3-3333--5x-xxxx-5x-xxxx-5x------------------------------|
E|-------------------------------------------------------------------|
     play softly      play hard

e|--0---00-----00----------------------------------------------------|
B|--0---00-----00----------------------------------------------------|
G|--5---55-----55----------------------------------------------------|
D|--7-7-77-7-7-7777----5-5-55-5-5-5555-------------------------------|
A|--7-7-77-7-7-7777----5-5-55-5-5-5555-------------------------------|
E|--5-5-55-5-5-5555----3-3-33-3-3-3333-------------------------------|
     play softly        softly

e|-------------------------------------------------------------------|
B|-------------------------------------------------------------------|
G|--5-5-55-5-5-5555----7~--------------------------------------------|
D|--5-5-55-5-5-5555----7~--------------------------------------------|
A|--3-3-33-3-3-3333----5~--------------------------------------------|
E|-------------------------------------------------------------------|
     play softly       soft


          ~RIFF 2 (X4) slow

          ~RIFF 2 (X4) fast

e|-------------------------------------------------------------------|
B|-------------------------------------------------------------------|
G|--          -------------------------------------------------------|
D|--  End On  ----7x-------------------------------------------------|
A|--          ----7x-------------------------------------------------|
E|----------------5x-------------------------------------------------|


| p  pull-off
| ~  vibrato
| x  Mute note
=====================================================================
Comments