Burn Chesca Burn - In Yourself Chords & Tabs

 

In Yourself Chords & Tabs

Burn Chesca Burn Chords & Tabs

Version: 1 Type: Tab 0 ratings
1 star 2 stars 3 stars 4 stars 5 stars
comments

In Yourself Tab

---------------------------------------------------------------
             "In Yourself" - Burn Chesca Burn
---------------------------------------------------------------

Tabbed by: Justin RiRaY 
Email: Pakman7JR@hotmail.com           AIM: BeatPwner

     This song is freakin awesome, and its my last tab
from her four singles =D  Chesca is awesome! check out
her music! 
     ooh yea, the song order is on the mid-right of the tab =D

Tuning: eBGDAE


     Pre-VERSE / VERSE (x4)
[ Tab from: http://www.guitartabs.cc/tabs/b/burn_chesca_burn/in_yourself_tab.html ]
e|------3-----3---3-----3----------3-----3---3-----3----|\
B|--------3---3-----3-----3----------3---3-----3-----3--|
G|----0-----0---0-----0----------0-----0---0-----0------| \
D|------------------------------------------------------|
A|-----------------------------3------------------------|  \
E|--3---------------------------------------------------|
                                                             X4
e|------3-----3---3-----3----------3-----3~-------------|
B|--------3---3-----3-----3----------3---3~-------------|  /
G|----0-----0---0-----0----------0-----0----------------|
D|--2--------------------------3------------------------| /
A|------------------------------------------------------|
E|------------------------------------------------------|/

                                       >>>SONG ORDER<<<
     CHORUS                               Pre-Verse
                                          Verse X2
e|--3>----3>----3>----3>--| \             Chorus
B|--3>----3>----3>----3>--|  \            Pre-Verse
G|--0>----0>----0>----0>--|    X2         Verse
D|--0>----0>----0>----0>--|  /            Chorus
A|--2>----0>----2>----2>--| /             Bridge
E|--3>----2>----0>----3>--|/              Chorus
                                          Verse

     BRIDGE

e|--0>----2>----3>----3>--|     |--0>----2>----|
B|--0>----0>----3>----3>--|\    |--0>----0>----|
G|--0>----0>----0>----0>--| X3  |--0>----0>----|
D|--2>----0>----0>----0>--|/    |--2>----0>----|
A|--2>----0>----0>----2>--|     |--2>----0>----|
E|--0>----2>----3>----3>--|     |--0>----2>----|

| >  keep strumming
| ~  vibrato
===============================================================
Comments