Burn Chesca Burn - Human Car Wreck Chords & Tabs

 

Human Car Wreck Chords & Tabs

Burn Chesca Burn Chords & Tabs

Version: 1 Type: Tab 0 ratings
1 star 2 stars 3 stars 4 stars 5 stars
comments

Human Car Wreck Tab

   
---------------------------------------------------------------------
                 "Human Car Wreck" - Burn Chesca Burn
---------------------------------------------------------------------

Tabbed by: Justin RiRaY 
Email: Pakman7JR@hotmail.com           AIM: BeatPwner

     This is my favorite song from Chesca so far, it freakin rocks!
The guitar is faultless! =D  and she has a pretty voice!


Tuning: eBGDAE



          *** GUITAR 1 ***

     INTRO / VERSE
e|---------------------------2-3-5------------2-3------------3-2-----|
B|------3-3-3-5p3------3-3-3------------3-3-3----------3-3-3---------|
G|-------0-0-----------------------------0-0------------0-0----------|
D|--2-2------------0-0--0-0------------------------------------------|
A|----------------------------------2-2------------3-3---------------|
E|-------------------------------------------------------------------|

e|---------------------------2-3-5--------------3------------3-2-----|
B|------3-3-3-5p3------3-3-3------------3-3-3-3--------3-3-----------|
G|-------0-0-----------------------------0-0------------0-00---------|
D|--2-2------------0-0--0-0------------------------------------------|
A|----------------------------------2-2------------3-3---------------|
E|-------------------------------------------------------------------|
     0:00 - 1:26          2:03 - 2:52          3:29 - 4:38
[ Tab from: http://www.guitartabs.cc/tabs/b/burn_chesca_burn/human_car_wreck_tab.html ]
e|-----------------3~------------------------------------------------|
B|---          ----3~------------------------------------------------|
G|---  End On  ----0~------------------------------------------------|
D|---          ----0~------------------------------------------------|
A|-----------------2~------------------------------------------------|
E|-----------------3~------------------------------------------------|   


     PRE-CHORUS / CHORUS

e|---3---3---3-33----7---7---7------3---3---3-33--2-2222-3-3333-55---|
B|---3---3---3-33----7---7---7------3---3---3-33--3-3333-3-3333-33---|
G|-----------0-00---------------------------------2-2222-2-2222-22---|
D|-------------------------------------------------------------------|
A|-3---3---3-3-33--7---7---7---7-------------------------------------|
E|--------------------------------3---3---3-3-33---------------------|

e|---3---3---3---3----7---7---7---7----3---3---3-33--2-2222-3-3333-55|
B|---3---3---3---3----7---7---7---7----3---3---3-33--3-3333-3-3333-33|
G|-----------------------------------------------00--2-2222-2-2222-22|
D|-------------------------------------------------------------------|
A|-3---3---3---3----7---7---7---7------------------------------------|
E|-----------------------------------3---3---3-3-33------------------|
               1:27 - 2:02          2:53 - 3:28



          *** GUITAR 2 ***
     The 2nd guitar was too hard for me to hear... so I couldnt' tab
it =C  but it sounds great just with the first guitar =D


| h  hammer-on
| p  pull-off
| ~  vibrato
=====================================================================
Comments