Buried A Lie - Senses Fail Chords & Tabs

 

Senses Fail Chords & Tabs

Buried A Lie Chords & Tabs

Version: 1 Type: Tab 0 ratings
1 star 2 stars 3 stars 4 stars 5 stars
comments

Senses Fail Tab

   
e|----------------------------------
B|----------------------------------
G|-----2------------------2---------
D|---0-----4---2----4---0-----4---2-
A|-4---------4--------4---------4---
D|----------------------------------

 chorus
e|-----------------------------------------------------
B|-----------------------------------------------------
G|-666-777-1414141414141414-111111-666-99999999-1111-77
D|-xxx-xxx--x-x-x-x-x-x-x-x-x-x-x--xxx-xxxxxxxx-x-x--xx   x2
A|-444-555-1212121212121212-9-9-9--444-77777777-9-9--55
D|-----------------------------------------------------

 fill
e|----------------------
B|----------------------
G|----------------------
D|-555-000-555-000-55-00  x2
A|-555-000-555-000-55-00
D|-555-000-555-000-55-00

 verse (palm muted)
e|--------------------------
B|--------------------------
G|-7-----11-----------------
D|-7 x16-11 x16-9-----5-----  x2
A|-5------9-----9 x16-5 x16-
D|--------------9-----5-----

e|-----------------------------------------------------
B|-----------------------------------------------------
G|-666-777-1414141414141414-111111-666-99999999-1111-77
D|-xxx-xxx--x-x-x-x-x-x-x-x-x-x-x--xxx-xxxxxxxx-x-x--xx   x2
A|-444-555-1212121212121212-9-9-9--444-77777777-9-9--55
D|-----------------------------------------------------

e|----------------------
B|----------------------
G|----------------------
D|-555-000-555-000-55-00  x1
A|-555-000-555-000-55-00
D|-555-000-555-000-55-00
[ Tab from: http://www.guitartabs.cc/tabs/b/buried_a_lie/senses_fail_tab.html ]
e|--------------------------
B|--------------------------
G|-7-----11-----------------
D|-7 x16-11 x16-9-----5-----  x2
A|-5------9-----9 x16-5 x16-
D|--------------9-----5-----


e|-----------------------------------------------------
B|-----------------------------------------------------
G|-666-777-1414141414141414-111111-666-99999999-1111-77
D|-xxx-xxx--x-x-x-x-x-x-x-x-x-x-x--xxx-xxxxxxxx-x-x--xx   x4
A|-444-555-1212121212121212-9-9-9--444-77777777-9-9--55
D|-----------------------------------------------------

e|--------------------------
B|--------------------------
G|-7-----11-----------------
D|-7 x16-11 x16-9-----5-----  x2
A|-5------9-----9 x16-5 x16-
D|--------------9-----5-----

e|----------------------
B|----------------------
G|----------------------
D|-555-000-555-000-55-00  x4
A|-555-000-555-000-55-00
D|-555-000-555-000-55-00

e|-----------------------------------------------------
B|-----------------------------------------------------
G|-666-777-1414141414141414-111111-666-99999999-1111-77
D|-xxx-xxx--x-x-x-x-x-x-x-x-x-x-x--xxx-xxxxxxxx-x-x--xx   x4
A|-444-555-1212121212121212-9-9-9--444-77777777-9-9--55
D|-----------------------------------------------------

e|----------------------        end on e|--
B|----------------------               B|--
G|----------------------               G|--
D|-555-000-555-000-55-00 x2            D|-0~           
A|-555-000-555-000-55-00               A|-0~
D|-555-000-555-000-55-00               D|-0~

 
Comments