Burden Brothers - Shadow Chords & Tabs

 

Shadow Chords & Tabs

Burden Brothers Chords & Tabs

Version: 1 Type: Bass Tab 0 ratings
1 star 2 stars 3 stars 4 stars 5 stars
comments

Shadow Bass Tab

Burden Brothers- Shadow

Bass Tab

This song is in drop "D" tuning

Intro:
Bass starts at: You know I gotta find out.

G--------------------------------------------------|
D---------------------5----------------------------|
A-------------------5------------------------------|
D-3---0------3---0------3---0------3---0-----------|

Chorus:

G-----------------------------------------------------------------------------------|
D-----------------------------------------------------------------------------------|
A-------7777-------------7777------------7777---------------------------------------|
D--5555-------3333-5555-------3333-5555-------3333-22222-3333- 0--------------------|

Verse:

6X

G-------------------------------------------------------------------------|
D-------------------------------------------------------------------------|
A-------------------------------------------------------------------------|
D---0000000-3333-5-3-5-7---0000000-3333-5-3-5-3-7-------------------------|

Chorus:

G-----------------------------------------------------------------------------------|
D-----------------------------------------------------------------------------------|
A-------7777-------------7777------------7777---------------------------------------|
D--5555-------3333-5555-------3333-5555-------3333-22222-3333-5-3-5-7--0------------|

Verse:

4X
[ Tab from: http://www.guitartabs.cc/tabs/b/burden_brothers/shadow_btab.html ]
G--------------------------------------------------------------------------|
D--------------------------------------------------------------------------|
A--------------------------------------------------------------------------|
D---0000000-3333-5-3-5-7---0000000-3333-5-3-5-3-7--------------------------|

Bridge:

G------------------------------------------------------------------------------------|
D------------------------------------------------------------------------------------|
A------------------------------------------------------------------------------------|
D-7777-5555-0000-3333-7777-5555-0000-3333-7777-5555-0000-3333------------------------|

G-----------------------------------------|
D-----------------------------------------|
A-----------------------------------------|
D-7777-5555-0000-3333-5555----------------|

Intro:
Bass starts at: Know that I'm wait-ing.

G--------------------------------------------------------|
D------------------------5-------------------------------|
A----------------------5---------------------------------|
D--3---0------3---0------3---0------3---0----------------|

Chorus:

4X

G-----------------------------------------------------------------------------------|
D-----------------------------------------------------------------------------------|
A-------7777-------------7777-------------7777--------------------------------------|
D--5555-------3333-5555-------3333-5555-------3333-22222-3333-----------------------|


This tab is dedicated to the band Rumspringa.

-Moldstad
Comments